Redscape - Let This Go Chords & Tabs

 

Let This Go Chords & Tabs

Redscape Chords & Tabs

Version: 1 Type: Tab 0 ratings
1 star 2 stars 3 stars 4 stars 5 stars
comments

Let This Go Tab

Redscape - Let This Go
Tabbed By: Brian

Hey it me brian this is my favorite band n i think this sound like 
the real thing
sk8inguitarist25@hotmail.com
this is only 1 guitar tho. kant get the 2nd guitar


   chorus                                            on fifth time 
-------------------------------------------------  -------------
-------------------------------------------------  -------------
-------------8-8-8-8-8----------------8-8-8-8-8--  ----8-8-8~---
-9-9-9-9-9---8-8-8-8-8----6-6-6-6-6---8-8-8-8-8--  ----8-8-8~---
-9-9-9-9-9---6-6-6-6-6----6-6-6-6-6---6-6-6-6-6--  ----6-6-6~---
-7-7-7-7-7----------------4-4-4-4-4--------------  -------------
[ Tab from: http://www.guitartabs.cc/tabs/r/redscape/let_this_go_tab.html ]
verse
----------------------------------------------------
----------------------------------------------------
----------------------------------------------------
-9-x-x-9-----6-x-x-6---5-x-x-5--11-x-x-11--------------
-9-x-x-9-----6-x-x-6---5-x-x-5--11-x-x-11----------------
-7-x-x-7-----4-x-x-4---3-x-x-3--9--x-x-9--------------

i dont think this is the solo but its worth a shot
----------------------------------------------------------
------------------------------------------------------------
-----------------------------------------------------------
--5-5-5-5~--6-6-6-6~--7-7-7-7~--8-8-8-8~--9-9-9-9~-------x3 i think
--5-5-5-5~--6-6-6-6~--7-7-7-7~--8-8-8-8~--9-9-9-9~-------------
--3-3-3-3~--4-4-4-4~--5-5-5-5~--6-6-6-6~--7-7-7-7~--------------

--------------------------------------------------------
--------------------------------------------------------
--------------8-8-8-8-8------------------8-8-8-8-8~-----
--9-9-9-9-9---8-8-8-8-8----6-6-6-6-6~----8-8-8-8-8~-----x2
--9-9-9-9-9---6-6-6-6-6----6-6-6-6-6~----6-6-6-6-6~-----
--7-7-7-7-7----------------4-4-4-4-4~-------------------

chorus x 2 
on last 1 end on 9
                 9
                 7

thats it. not perfert but good i think
Comments