Redd Kross - Pretty Please Me Chords & Tabs

 

Pretty Please Me Chords & Tabs

Redd Kross Chords & Tabs

Version: 2 Type: Tab 0 ratings
1 star 2 stars 3 stars 4 stars 5 stars
comments

Pretty Please Me Tab

   
#----------------------------------PLEASE NOTE--------------------------------#
#This file is the author's own work and represents their interpretation of the#
#song. You may only use this file for private study, scholarship, or research.#
#-----------------------------------------------------------------------------#

Date: Tue, 2 Jun 1998 12:31:17 -0700
From: wnb 
Subject: r/redd_kross/pretty_please_me.tab

Pretty Please Me - Redd Kross [from the album "Show World"]
(Steve Hufsteter) [originally recorded by The Quick]
Tabbed by: Tania Taylor [saragon@ozemail.com.au]

>>-----------------START NOTES------------------<<

[1] The -A- chord throughout the verse is palm muted.

[2] Throughout the song you will see *vr and *cr
    where:

    *vr= VERSE RIFF
    *cr= CHORUS RIFF

If a number appears after *vr or *cr, it indicates the
number of times you play the riff.

These are those riffs:

VERSE RIFF:
e------------------------------------------------|
B--8--7-7----------------------------------------|
G----------9-9-7-7-------------------------------|
D------------------------------------------------|
A------------------------------------------------|
E------------------------------------------------|

CHORUS RIFF:
e-------------------------------------------------|
B-------------------------------------------------|
G-------------------------------------------------|
D--5-7--3-5---------------------------------------|
A------------7-8--5-7-----------------------------|
E-------------------------------------------------|

[3] This tab is for guitar 1, except where noted in
    the intro. where guitar 2 appears directly under
    under guitar 1, the two parts are played
    simultaneously.

MISCELLANEOUS:
h - hammer on
p - pull off
b - bend string up
r - release bend
/ - slide up
\ - slide down
v - vibrato (sometimes written as ~)
t - tap (with strumming hand)
x - muted, struck string

>>-------------------END NOTES------------------<<

>>--------------------START---------------------<<

Intro:

(guitar 1)
e--5-----5-------7-----7--------------------------|
B----5-----6-------7-----8------------------------|
G------6-----5-------8-----7----------------------|  [x2]
D--------------7-------------9--------------------|
A-------------------------------------------------|
E-------------------------------------------------|

(guitar 1)
e--------5-5--------------7-7---------------------|
B------5-----6----------7-----8-------------------|
G----6---------5------8---------7-----------------|
D--7-------------7--9-------------9---------------|
A-------------------------------------------------|
E-------------------------------------------------|

(guitar 2)
e-------------------------------------------------|
B--------5-6--------------7-8---------------------|
G------6-----5----------8-----7-------------------|
D----7---------7------9---------9-----------------|
A--7-------------8--9-------------10--------------|
E-------------------------------------------------|

(guitar 1)
e--------5-5--------------7--7-----7--------------|
B------5-----6----------7------8-----8------------|
G----6---------5------8----------7-----7----------|
D--7-------------7--9-----------------------------|
A-------------------------------------------------|
E-------------------------------------------------|

(guitar 2)
e-------------------------------------------------|
B--------5-6--------------7--8------8-------------|
G------6-----5----------8------7------7-----------|
D----7---------7------9----------9------9---------|
A--7-------------8--9-----------------------------|
E-------------------------------------------------|

       b      b
D - A  D - C  D - C  [x2]

D
[ Tab from: http://www.guitartabs.cc/tabs/r/redd_kross/pretty_please_me_tab_ver_2.html ]
Verse 1:
A                             D
  Animal gods got a cod piece
A                          D
  So shot on the hard seas
A                           D
  Gotta be - gotta be a man
A
  People gotta get what they can
         *vr2          D
  I said my (my-my-my)
A                        D
  Can can is the new age
A                              D
  San san it's the coming rage
A                                         D
  Pretty please me, pretty please me baby
A
  Don't ask because I already gave
         *vr2
  I said my - it's a crime-crime-crime

Chorus:
C                   G         *cr
  Please me, pretty please me
          C            G         *cr
  It's so easy, pretty please me
        A       F
  If it seems alright
         b         G
  Pretty please me right

       b      b
D - A  D - C  D - C  [x2]

D

Verse 2:
A                                    D
  Pretty please me with sugar on top
A                           D
  Hey baby do the fish flop
A                                  D
  I got a girl, got a d-dream girl
A
  Keeps cool in a dream world
            *vr2
  I said my my-my-my

Verse 3:
A                                D
  Bang bang goes the big big gun
A                                D
  Hey baby, I'm the, I'm the one
A                            D
  Be-bop boy, see J Seabring
A                                    D
  Twenty thousand years in Sing-Sing
  *vr2
  My - it's a crime-crime-crime

Chorus:
C                   G         *cr
  Please me, pretty please me
          C            G         *cr
  It's so easy, pretty please me
        A       F
  If it seems alright
         b         G
  Pretty please me right

Solo:
(make it up as you go along)
e-------------------------------------------------|
B-------------------------------------------------|
G-------------------------------------------------|
D-------------------------------------------------|
A-------------------------------------------------|
E-------------------------------------------------|

e-------------------------------------------------|
B-------------------------------------------------|
G-------------------------------------------------|
D-------------------------------------------------|
A-------------------------------------------------|
E-------------------------------------------------|

e--15-13-12-10-8-7--------------------------------|
B-------------------8-10--6-8---------------------|
G------------------------------9-10--7-9----------|
D-------------------------------------------------|
A-------------------------------------------------|
E-------------------------------------------------|


Chorus 2:
  Won't you
  C                   G         *cr
  Please me, pretty please me
          C            G         *cr
  It's so easy, pretty please me
        A       F
  If it seems alright
         b         G
  Pretty please me right

Bridge:

e------------------------------------------------|
B------10-8------------12-10---------------------|
G----9------10------11-------12------------------|  [x2]
D--7--------------9------------------------------|
A------------------------------------------------|
E------------------------------------------------|

e-------------------------------------------------|
B-------------------------------------------------|
G-------------------------------------------------|
D--7--------------9-------------------------------|
A----7---8----------9----10-----------------------|
E------9---8-5-1------11----10-7-3----------------|

e--------5-5--------------7-7---------------------|
B------5-----6----------7-----8-------------------|
G----6---------5------8---------7-----------------|
D--7-------------7--9-------------9---------------|
A-------------------------------------------------|
E-------------------------------------------------|

A                   F
Please me please me pretty please me
b                   G
Please me please me pretty please me
A                   F
Please me please me pretty please me
b                   G
Please me please me pretty please me

A                   F
Please me please me pretty please me
b                   G
Please me please me pretty please me
A                   F
Please me please me pretty please me
b                   G
Please me please me pretty please me

D - A

>>---------------------END----------------------<<
Comments