Red Light Ambition - Tell Me This Chords & Tabs

 

Tell Me This Chords & Tabs

Red Light Ambition Chords & Tabs

Version: 1 Type: Bass Tab 0 ratings
1 star 2 stars 3 stars 4 stars 5 stars
comments

Tell Me This Bass Tab

-------------------------------------------------------------------------
	       "Tell Me This" - Red Light Ambition

            http://www.purevolume.com/redlightambition
-------------------------------------------------------------------------

Tabbed By: Justin RiRaY
e-mail: Pakman7JR@hotmail.com

     This is a pretty song, and it freakin rocks. The guitr sounds too
hard to tab, so I tabbed the bass =D  Which sounds just as good by 
itself. Enjoy =D


Tuning: EADG


     INTRO

G|-----------------------------------------------------------------------|
D|-----------------------3-33-33-----------------------------------------|
A|----------------------------------3-5-3--------------------------------|
E|---------6~-------1~------------6-------6-6-6-6-6~---------------------|


     VERSE

G|-----------------------------------------------------------------------|
D|------------------------------------3-3-------------------------   ----|
A|-5-5-3-3-1~-11111111111111111---5-5-----11111111111111111111--- X2 ----|
E|---------------------------------------------------------------   -----|

     CHORUS
[ Tab from: http://www.guitartabs.cc/tabs/r/red_light_ambition/tell_me_this_btab.html ]
G|-----------------------------------------------------------------------|
D|-----------------------------------------------------------------   ---|
A|--------------------------------55-555-333-333--11-111-111-111-- X2 ---|
E|-11-111-111-11--66-666-666-666----------------------------------   ----|

G|-----------------------------------------------------------------------|
D|-----------------------------------------------------------------------|
A|-----------------------------------------------------------------------|
E|---3--5--6~------------------------------------------------------------|


     PRE-VERSE

G|-----------------------------------------------------------------------|
D|--------------------------------------------------------   ------------|
A|------------------------33-5-3------------------------- X2 ------------|
E|--1-11-1-111-11-11-11-1--------6-66-666-66-666-66-6~---   -------------|


          ~VERSE

          ~CHORUS

     BRIDGE

G|-----------------------------------------------------------------------|
D|--------------------------------------   ------------------------------|
A|--------------------------5-5-3------ X2 ------5-3---------------------|
E|--5-5-55-5555-6-6-66-6666-------5-6--   -----------5-6-----------------|


          ~CHORUS

     OUTRO

G|-----------------------------------------------------------------------|
D|-----------------------------------------------------------------------|
A|-----------------------------------------------------------------------|
E|---3-5-6------3-5-6------3-5-6---1111111111----------------------------|


| ~  vibrato
=========================================================================
Comments