Red House Painters - Priest Alley Song Chords & Tabs

 

Priest Alley Song Chords & Tabs

Red House Painters Chords & Tabs

Version: 1 Type: Tab 0 ratings
1 star 2 stars 3 stars 4 stars 5 stars
comments

Priest Alley Song Tab

#----------------------------------PLEASE NOTE---------------------------------#
#This file is the author's own work and represents their interpretation of the #
#song. You may only use this file for private study, scholarship, or research. #
#------------------------------------------------------------------------------#
#

Date: Thu, 18 Dec 1997 21:57:35 -0800
From: Mohrland 
Subject: TAB: Priest Alley Song by: Red House Painters
 

Song:			Priest Alley Song
Album:			Songs for a Blue Guitar
By:			Red House Painters
Transcribed by: 	Jesse Mohrland(mocha@gte.net)

Acoustic guitar
Dropped D tuning. (Low E string is tuned down a full step to a D)
(see below for tuning instructions)

E--------5--------3--------2-----------------------2----------------
B----------------------------3----------------3---------3------------
G----------------------------0-------------0-------------------------
D---0--------0---------0-----------0--------------------------------
A-------------------------------------2/3-------2----2--------------
D-0---0----0---0-----0-----------0-------------------------3/5-5--0-
[ Tab from: http://www.guitartabs.cc/tabs/r/red_house_painters/priest_alley_song_tab.html ]
E--------5------------------------------2---------------------------
B-----------------3----------------3-------3------------------------
G-------------------------------------------------------------------
D---0--------0----------0--0----------------------------------------
A-----------------------------2/3----2---2---2----------------------
D-0---0----0---0-----0------------------------3/5--5 0--------------

Interlude						  
E--------------------------------------------------------------------
B--------3-------3------------------------3---------3----------------
G------------2---------------------0----4---------6-----6------------
D----0---------------0----0------------------------------------------
A-----------------------------------------------0--------------------
D--2---2---2---2---2----2--------4--4/5------5-----------------------

E-------------------------------------------------------
B--------3-------3--------------------------------------
G------------2---------------------0--------------------
D----0---------------0----0-----------------------------
A-------------------------------------------------------
D--2---2---2---2---2----2--------4--4/5-5--4--2--0------

Most of the rest is just variations of these.

Kinda a cheesy version of this but it gets you by:
Solo
E--8--8--12b13--8------------------------------------------
B--8--8-----------10--10b11-6-5-3--3b4-3-3----3-3b4--3-3---
G----------------------------------0---0-0h2--0-0----0-0h2-
D----------------------------------------------------------
A----------------------------------------------------------
D----------------------------------------------------------

Yet another even worse "just to complete the song" kinda thing goin on:
			   
Comments