Red House Painters - Down Through Chords & Tabs

 

Down Through Chords & Tabs

Red House Painters Chords & Tabs

Version: 2 Type: Tab 0 ratings
1 star 2 stars 3 stars 4 stars 5 stars
comments

Down Through Tab

#----------------------------------PLEASE NOTE--------------------------------#
#This file is the author's own work and represents their interpretation of the#
#song. You may only use this file for private study, scholarship, or research.#
#-----------------------------------------------------------------------------#

From: "Hughes, Mike" 
Subject: TAB: Down Through by Red House Painters
Date: Fri, 27 Mar 1998 17:02:25 -0600

Down Through
Red House Painters
album 2 (rollercoaster)
written by Mark Kozelek
===========================
tab by michael hughes 3/98
hughesme@bergelect.com
comments/questions welcomed
===========================
notes:
after I tabbed "the riff", I got lazy and just noted possible
fingerings, so you'll have to get the patterns going

tuning is CADGBE capoed at 3 ONLY on the ADGBE strings
so you'll need an open-ended capo, and you will have to
position the capo back far enough to be able to get a finger
on the C string fret 3 (beside the capo)

and since all the fret numbers are counted from the capo,
WHEN YOU SEE "0" ON THE C STRING, YOU ACTUALLY HAVE TO
FINGER IT AT FRET 3 (BESIDE THE CAPO)
and when you need to play the open C, it is tabbed as "C"

murky? . . . sorry
===============================================================

  the first 2 measures. . .
|----0---------0-------------|---------------------------|
|--------------5-----3---0---|--------0---------0--------|
|----------0-----------------|--5---------5---------0----|
|--------5---5---5---4---0---|------0-------0------------|
|----0-----------------------|--0------------------------|
|----------------------------|------------------7---4----|
     ^       ^       ^          ^       ^       ^


  "the riff" with verse 1
||---------0-----------------|--------------------------||
||---------5---------3---0---|--------0---------0-------||
||.------------0-------------|--5---------5---------0--.||
||.------5--(5)--5---4---0---|------0-------0----------.||
||---------------------------|--0-----------------------||
||--"C"----------------------|------------------7---4---||
     ^       ^       ^          ^       ^       ^


|-------------------------------------------------------------|
|---1------------3---------8-------5--------------------------|
|---0------------0---------0-------0------------0--0--0--0----|
|--------------------------0-------0-----------0--0--0--0-----|
|------3------------0---------5---------------3--2------------|
|---0------------2--------s7-------5----------------2--0------|
   the wind blew hard      hard on me        (the turn-around)
   I imagined it      your gh. . body

[ Tab from: http://www.guitartabs.cc/tabs/r/red_house_painters/down_through_tab_ver_2.html ]
|-------------------------------------------------------------|
|--0--0---3---------------------------------------------------|
|-------------------------------------------------------------|
|--------------0----------------------------------------------|
|--2--2------0-0----------------------------------------------|
|---------2---------------------------------------------------|
   making love with me


"the riff" with verse 2
||---------0-----------------|--------------------------||
||---------5---------3---0---|--------0---------0-------||
||.------------0-------------|--5---------5---------0--.||
||.------5--(5)--5---4---0---|------0-------0----------.||
||---------------------------|--0-----------------------||
||--"C"----------------------|------------------7---4---||
     ^       ^       ^          ^       ^       ^


|-------------------------------------------------------------|
|--0----------------3-------------0-----------------0---------|
|--0----------------0-------------0-----------------0---------|
|--2----------------5-------------0------0h2-0------0---------|
|--3----------------6--------------------------0h2------------|
|---------------------------------7-----------------0---------|
   I still feel the sting . . . I hit you


|-------------------------------------------------------------|
|--0--------------------3----------------0----------------0---|
|--0--------------------0----------------0----------------0---|
|--0--------------------5----------------0-----0h2-0------0---|
|----------------------------------------------------0h2------|
|--0--------------0--2--3----------------7----------------0---|
   I keep your picture  tidy and . . . a shrine


|-------------------------------------------------------------|
|------0---------0------------0---------0---------------------|
|------0---------0------------0---------0---------------------|
|------0---------0------------0---------0---------------------|
|------2------------------------------------------------------|
|------0---------2------------4---------5---------------------|
   and hope that in time   in time   in time


|----------------------0--------------------------------------|
|--0------0-------0----0-----1-------0-------1-----0----------|
|--5------4-------5----4-----0-------0-------0-----0----------|
|--0------5-------0----0-----2-------2-------2-----2----------|
|----------------------5--------------------------------------|
|--7------7-------7----------0-------0-------0-----0----------|
   we'll  house   on shore   showers soul
   washes away    vio that   runs    blood


|-------------------------------------------------------------|
|--0----------0-----------0------0----0--------0----0---------|
|--0----------0-----------0------0----0--------0----0---------|
|--0----------0-----------0------0----0--------0----0---------|
|-------------2-----------------------3-----------------------|
|--4----------0-----------2------5-------------0----2---------|
   drains the pain that I caused you           down through
Comments