Red House Painters - Brockwell Park Chords & Tabs

 

Brockwell Park Chords & Tabs

Red House Painters Chords & Tabs

Version: 1 Type: Tab 0 ratings
1 star 2 stars 3 stars 4 stars 5 stars
comments

Brockwell Park Tab

#----------------------------------PLEASE NOTE--------------------------------#
#This file is the author's own work and represents their interpretation of the#
#song. You may only use this file for private study, scholarship, or research.#
#-----------------------------------------------------------------------------#

From: "Hughes, Mike" 
Subject: TAB: Brockwell Park by Red House Painters
Date: Fri, 27 Mar 1998 16:59:27 -0600

Brockwell Park
Red House Painters
album: Ocean Beach
written by Mark Kozelek
===========================
tab by michael hughes 3/98
hughesme@bergelect.com
comments/questions welcomed
===========================
3/4 time except 3 instances of 2 bars of 4/4
DADGAD capo 2

||--------4-2-4-|-------4-2-4-||-------------|-------7---5-|
||------0-------|-----0-------||-------------|-------0-----|
||.---------0---|---------0--.||-------------|-----------0-|
||.-------------|-0----------.||-------------|---------0---|
||--4-----------|-------------||-4-----------|-------------|
||--------------|-------------||-------------|-0-----------|
    ^   ^   ^     ^   ^   ^      ^   ^   ^     ^   ^   ^    
                                                   in the nite

|---------4-----|-------4-----|-------------|-------------|
|-------0-----0-|-----0-----0-|-------0---0-|-------------|
|---0-----------|---------0---|-----0-------|-------------|
|-----------4---|-4-----------|---------2---|-2---4---4---|
|---------------|-------------|-------------|-------------|
|---------------|-------------|-0-----------|-------------|
    ^   ^   ^     ^   ^   ^     ^   ^   ^     ^   ^   ^    
                  we freeze             & u  want me  to te-

|---------4-----|-----------4-|-----------4-|-----------4-|
|-------------0-|-------0-----|-------0-----|-------0-----|
|-------2---2---|-----2---2---|-----2---2---|-----2---2---|
|---0-----------|-------------|-0-----------|-------------|
|---------------|-------------|-------------|-------------|
|---------------|-0-----------|-------------|-0-----------|
    ^   ^   ^     ^   ^   ^     ^   ^   ^     ^   ^   ^    
    -ell

|---------------|-------5-----|-------4-----|
|-----0---0-----|-----0-----0-|-----0-----0-|
|-------------0-|---0-----0---|---0-----0---|
|---0---2---4---|-5-----------|-4-----------|
|---------------|-------------|-------------|
|---------------|-------------|-------------|
    ^   ^   ^     ^   ^   ^     ^   ^   ^    
        in  lon-  don's        lone-  some

|---------4-------4-|-----4-----4-----|
|---------0---0-----|-----0-----0---0-|
|-------0---0---0---|---0-----0-------|
|---2---------------|-4-----4-----4---|
|-------------------|-----------------|
|-------------------|-----------------|
    ^   ^   ^   ^   | ^   ^   ^   ^    
    park              brock-

|-------------4-|-----------4-|-----------4-|-----------4-|
|---------0-----|-------0-----|-------0-----|-------0-----|
|-------2---2---|-----2---2---|-----2-------|-----2---2p0-|
|---0-----------|-------------|-0-------0---|-------------|
|---------------|-------------|-------------|-------------|
|---------------|-0-----------|-------------|-0-----------|
    ^   ^   ^     ^   ^   ^     ^   ^   ^     ^   ^   ^    
   -well

|-------------4-|-----------4-|-----------4-|-----------4-|
|---------2-----|-------2-----|-------2-----|-------2-----|
|-----------0---|---------0---|---------0---|---------0---|
|-------2-------|-----2-------|-----2-------|-----2-------|
|---0-----------|-0-----------|-0-----------|-0-----------|
|---------------|-------------|-------------|-------------|
    ^   ^   ^     ^   ^   ^     ^   ^   ^     ^   ^   ^    
                    btout here                I   am  distr-

|-------------5-|-----------4-|-----------5-|-------4s5-4-|
|---------0-----|-------0-----|-------0-----|---------0---|
|-------0---0---|-----0---0---|-----0---0---|-----0-------|
|---------------|-------------|-------------|-------------|
|---2-----------|-2-----------|-2-----------|-2-----------|
|---------------|-------------|-------------|-------------|
    ^   ^   ^     ^   ^   ^     ^   ^   ^     ^   ^   ^    
  -acted

|-------------4-|-----------4-|-----------4-|-----------4-|
|---------2-----|-------2-----|-------2-----|-------2-----|
|-----------0---|---------0---|---------0---|---------0---|
|-------2-------|-----2-------|-----2-------|-----2-------|
|---0-----------|-0-----------|-0-----------|-0-----------|
|---------------|-------------|-------------|-------------|
    ^   ^   ^     ^   ^   ^     ^   ^   ^     ^   ^   ^    
                    asfirebombs              ex-  plooo-

|-------------4-|-------4-----|-------4-----|-------4---------|
|---------0-----|-------0-----|-------0-----|-------0---------|
|-------0---0---|-----0---0---|-----0---0---|-----0-----------|
|---------------|-5-----------|-4-----------|-2-------2h4p2p0-|
|---------------|-------------|-------------|-----------------|
|---5-----------|-------------|-------------|-----------------|
    ^   ^   ^     ^   ^   ^     ^   ^   ^     ^   ^   ^        
   -ode

|---------4-----|---------4p0-|-------0-----|-------4-----|
|-----------4---|-----4-------|---------0---|-----------4-|
|-----------0---|-------------|-----0-----0-|-----0---0---|
|-------0-------|-------------|---4---------|-------------|
|---0-----------|-0-----------|-2-----------|-4-----------|
|---------------|-------------|-------------|-------------|
    ^   ^   ^     ^   ^   ^     ^   ^   ^     ^   ^   ^    
                  bon-firelamps glow     t'thecrowdedroa-

|-------------4-|-------4-----|-----------4-|--------0-----|
|---------0-----|-----------0-|-------0-----|------0-------|
|-------0---0---|-----0---0---|-----0---0---|----0-------0-|
|---------------|-5-----------|-------------|--------------|
|---------------|-------------|-------------|4h5----4h5----|
|---5-----------|-------------|-5-----------|--------------|
    ^   ^   ^     ^   ^   ^     ^   ^   ^      ^   ^   ^    
   -oad
[ Tab from: http://www.guitartabs.cc/tabs/r/red_house_painters/brockwell_park_tab.html ]
|-------------4-|-0-----4---4-|-----------4-|-------4---4-|
|---------0-----|-------0---0-|-------0-----|-----------0-|
|-------2---2---|-----2---2---|-----2---2---|-----2---2---|
|---------------|-0-----------|-------------|-0-----------|
|---------------|-------------|-------------|-------------|
|---0-----------|-------------|-0-----------|-------------|
    ^   ^   ^     ^   ^   ^     ^   ^   ^     ^   ^   ^    


|-------5---7---|-9-----9-----|---7---7--p0-|
|-----0---0---0-|---0-----0---|----10---9---|
|---------------|-----0-----0-|-----0---0---|
|---------------|-------------|-------------|
|-------7---9---|-10----------|-9-----------|
|---0-----------|-------------|-------------|
    ^   ^   ^     ^   ^   ^     ^   ^   ^    
        if  thedays             weren't

|---5-----5-----5-4-|---7---7-----7---|
|-----0-----0-----0-|--------10----10-|
|-------0-----0-----|-----0-----0-----|
|-------------------|-----------------|
|---7---------------|-9---------------|
|-------------------|-----------------|
    ^   ^   ^   ^   | ^   ^   ^   ^    
    so                pre-

|---4-----4---4-|-4-----4---4-|-4-----4---4-|-4-----4---4-|
|-----0---0---0-|---0---0---0-|---0---0---0-|---0---0---0-|
|-------2---2---|-----2---2---|-----2---2---|-----2---2---|
|---0-----------|-------------|-0-----------|-------------|
|---------------|-------------|-------------|-------------|
|---------------|-0-----------|-------------|-0-----------|
    ^   ^   ^     ^   ^   ^     ^   ^   ^     ^   ^   ^    
   -cious

|-------5---7---|-9-----9-----|-7-----7-----|
|-----0---0---0-|---0-----0---|---0-----0---|
|---------------|-----0-----0-|-----0-----0-|
|---0-----------|-------------|-------------|
|-------7---9---|-10----------|-9-----------|
|---------------|-------------|-------------|
    ^   ^   ^     ^   ^   ^     ^   ^   ^    
        and no    worlds    w'  shor-   ted wi-

|---5-----5-----5---|---7---7-----7---|
|-----0-----0-----0-|----10----10--10-|
|-------0-----0-----|---------0-------|
|-------------------|-----------------|
|---7---------------|-9---------------|
|-------------------|-----------------|
    ^   ^   ^   ^   | ^   ^   ^   ^    
   -ires          had kept

|---4-----4---4-|-4-----4---4-|-4-----4---4-|-4-----4---4-|
|-----0---0---0-|---0---0---0-|---0---0---0-|---0---0---0-|
|-------2---2---|-----2---2---|-----2---2---|-----2---2---|
|---0-----------|-------------|-0-----------|-------------|
|---------------|-------------|-------------|-------------|
|---------------|-0-----------|-------------|-0-----------|
    ^   ^   ^     ^   ^   ^     ^   ^   ^     ^   ^   ^    
    us

|-------------4-|-----------4-|-----------4-|-----------4-|
|---------2-----|-------2-----|-------2-----|-------2-----|
|-----------0---|---------0---|---------0---|---------0---|
|-------2-------|-----2-------|-----2-------|-----2-------|
|---0-----------|-0-----------|-0-----------|-0-----------|
|---------------|-------------|-------------|-------------|
    ^   ^   ^     ^   ^   ^     ^   ^   ^     ^   ^   ^    
                 thngswoldbe    better                thn thi-

|-------------5-|-----------4-|-----------5-|-------4s5-4-|
|---------0-----|-------0-----|-------0-----|---------0---|
|-------0---0---|-----0---0---|-----0---0---|-----0-------|
|---------------|-------------|-------------|-------------|
|---2-----------|-2-----------|-2-----------|-2-----------|
|---------------|-------------|-------------|-------------|
    ^   ^   ^     ^   ^   ^     ^   ^   ^     ^   ^   ^    
   -is

|-------------4-|-----------4-|-----------4-|-----------4-|
|---------2-----|-------2-----|-------2-----|-------2-----|
|-----------0---|---------0---|---------0---|-------------|
|-------2-------|-----2-------|-----2-------|-----0-------|
|---0-----------|-0-----------|-0-----------|-0-------2---|
|---------------|-------------|-------------|-------------|
    ^   ^   ^     ^   ^   ^     ^   ^   ^     ^   ^   ^    
            thrsn an- gel bythe o- cean           I   mi-

|-------------4-|-------4-----|-------4-----|-------4---------|
|---------0-----|-------0-----|-------0-----|-------0---------|
|-------0---0---|-----0---0---|-----0---0---|-----0-----------|
|---------------|-5-----------|-4-----------|-2-------2h4p2p0-|
|---------------|-------------|-------------|-----------------|
|---5-----------|-------------|-------------|-----------------|
    ^   ^   ^     ^   ^   ^     ^   ^   ^     ^   ^   ^        
   -iss

|---------7---4-|-------4---4-|-----------4-|-0-----------|
|---------0-----|-4-----4---4-|-------0-----|-------------|
|-------0---0---|-------------|---------0---|-------------|
|---------------|-----0---0---|-----4-------|-------------|
|---0-----------|-0-----------|-2-----------|-------------|
|---------------|-------------|-------------|-------------|
    ^   ^   ^     ^   ^   ^     ^   ^   ^     ^   ^   ^    
              and tpson   thtrain               beforourli-

|-------------4-|-------4-----|-----------4-|-------------|
|---------0-----|-----0-----0-|-------0-----|----------//-|
|-------0---0---|---0-----0---|-----4---4---|-0-------//--|
|---------------|-5-----------|-------------|--------//---|
|---------------|-------------|-------------|-------//----|
|---5-----------|-------------|-5-----------|-------------|
    ^   ^   ^     ^   ^   ^     ^   ^   ^     ^   ^   ^    
 -ives  changed

|---4-----------|-4-----------|-------------|(4)----------|
|---0-----------|-0-----------|-0-----------|-0-----------|
|---0-----------|-0-----------|-0-----------|-0-----------|
|---0-----------|-0-----0-0---|-2-----------|-2-----------|
|---3-----------|-3-----0-2---|-2-----------|-2-----------|
|---------------|-------------|-2-----------|-2-----------|
    ^   ^   ^     ^   ^   ^     ^   ^   ^     ^   ^   ^    
              the mir whrI     wtchdyour

|---0-----0-----|-4-----------|-4-----------|-4-----------|
|---0-----0-----|-0-----------|-0-----------|-0-----------|
|---9-----9-----|-0-----------|-0-----------|-0-----------|
|---7-----7-----|-0-----------|-0-----------|-0-----------|
|---7-----7-----|-5-----------|-------------|-------------|
|---7-----7-----|-5-----------|-------------|-------------|
    ^   ^   ^     ^   ^   ^     ^   ^   ^     ^   ^   ^    
    naked body    strain


Comments