Red House Painters - All Mixed Up Chords & Tabs

 

All Mixed Up Chords & Tabs

Red House Painters Chords & Tabs

Version: 1 Type: Tab 0 ratings
1 star 2 stars 3 stars 4 stars 5 stars
comments

All Mixed Up Tab

Submitted By: Derek Thompson (heavyd1979@hotmail.com)
Red House Painters - All Mixed Up
Album: Songs For A Blue Guitar

This is my favorite RHP song, and it has never had a decent tab.
I just saw Mark play this song live, and he played with a capo 3.
I don't know what tuning he was using, but here is what I've figured out.

Tuning: DADGAD

Verses (strum this and listen for the rhythm)

D:------------------------------|
A:----5-------5-------5---------|
G:----2-------2-----------------|
D:----4---------------5---------|
A:------------4-------2---------|
D:------------------------------|

Pre-Chorus                      Chorus

D:--------------------|-----------------------------------------------------|
A:--------------------|-----0--0--0--0--/--0--0--0--0-----------------------|
G:----7-----7---------|-----2--2--4--4--/--6--6--4--4----7--7--7--7--7------|
D:--------------------|-----------------------------------------------------|
A:--------------------|-----------------------------------------------------|
D:----5-----4---------|----------------------------------5--5--5--5--5------|

Bridge (same as above)

D:---------------------------|
A:----7-----9----------------|
G:----9-----9-----7-----7----|
D:---------------------------|
A:---------------------------|
D:----------------4-----5----|

Instrumental Part (piano transferred to guitar)

D:----------------11--12--12--14--12--14--12--14--12--14--/--16------|
A:----14--12--12-------------------------------------------------12--|
G:-------------------------------------------------------------------|
D:-------------------------------------------------------------------|
A:-------------------------------------------------------------------|
D:-------------------------------------------------------------------|
[ Tab from: http://www.guitartabs.cc/tabs/r/red_house_painters/all_mixed_up_tab.html ]
D:--------------12--14--16--17--19----------17------------------|
A:--------------------------------------------------------------|
G:----11--12------------------------16----------12--11--9--11---|
D:--------------------------------------16----------------------|
A:--------------------------------------------------------------|
D:--------------------------------------------------------------|

D:------------12--14-----12--14--12-------------------|
A:----12--14----------14-------------12--10--12-------|
G:----------------------------------------------------|
D:-----------------------------------------------12---|
A:----------------------------------------------------|
D:----------------------------------------------------|

Outro (piano transferred to guitar)

D:-------------------------------------------7--7--7----|
A:----0--0--0--0--/--0--0--0--0--0--0--0--0--0--0--0----|
G:----2--2--4--4--/--6--6--4--4--6--6--7--7--7--7--7----|
D:------------------------------------------------------|
A:------------------------------------------------------|
D:------------------------------------------------------|

D:-------------------------------------------------------|
A:----0--0--0--0--0--0--0--0--0--0--0--0--0---0---0--0---|
G:----9--9--7--7--6--6--4--4--7--7--9--9--11--11--9--9---|
D:-------------------------------------------------------|
A:-------------------------------------------------------|
D:-------------------------------------------------------|

D:--------------------------------------------------------0----|
A:----0--0--0--0--0--0--0--0--0--0--0--0--0---0---0-------9----|
G:----9--9--7--7--6--6--4--4--7--7--9--9--11--11--9h11p9--11---|
D:--------------------------------------------------------0----|
A:--------------------------------------------------------0----|
D:--------------------------------------------------------0----|
Comments