Red Hot Chilli Peppers - Slow Cheetah Chords & Tabs

 

Slow Cheetah Chords & Tabs

Red Hot Chilli Peppers Chords & Tabs

Version: 1 Type: Tab 0 ratings
1 star 2 stars 3 stars 4 stars 5 stars
comments

Slow Cheetah Tab

Slow Cheetah
RHCP
From The Stadium Arcadium Album

These are just the chords, it should be pretty easy to figure out the
timing by listening to the song

Standard tuning

Intro/Verse

-0--0--0--0--1--0--0--0-
-1--0--1--1--3--1--5--3-
-2--0--2--0--2--2--5--4-
-2--2--3--2--0--2--5--5-
-0--2--3--3--x--0--3--5-
-x--0--x--x--x--x--x--x-

Pre-Chorus - Strum once

-0--0--0-
-1--1--1-
-2--2--2-
-3--2--3-
-3--0--3-
-x--x--x-
  
Chorus ('please don't speak my mind' bit) - strum thrice

-0--0--0-
-1--3--1-
-2--4--2-
-2--5--3-
-0--5--3-
-x--x--x-

Solo w/distortion...play about with this
[ Tab from: http://www.guitartabs.cc/tabs/r/red_hot_chilli_peppers/slow_cheetah_tab.html ]
----------------------------------------------------------------
----------------------------------------------------------------
-7s9-9s7-5-5-5-5---5h7-7s9-7-5---5h7-7s9-7-5---7s9-9b10b9-7-----
-----------------7-------------7-------------7------------------
----------------------------------------------------------------
----------------------------------------------------------------

-------15-17b-------15-15s17---------------------------------
-17-17--------17-17----------15s17-15-13-13-13-13------------
-------------------------------------------------------------
-------------------------------------------------------------
-------------------------------------------------------------
-------------------------------------------------------------

-------------------------------------------------------------
----13h15s17-15-13----13h15s17-15-13----15s17b-15------------
-14----------------14----------------14----------------------
-------------------------------------------------------------
-------------------------------------------------------------
-------------------------------------------------------------

Think that's about right, enjoy
Comments