Red Hot Chili Peppers - Zephyr Song Chords & Tabs

 

Zephyr Song Chords & Tabs

Red Hot Chili Peppers Chords & Tabs

Version: 5 Type: Tab 2 ratings
1 star 2 stars 3 stars 4 stars 5 stars
comments

Zephyr Song Tab

   
Author/Artist: Red Hot Chili Peppers
Title: The Zephyr Song
Album: By the Way
by Grandmaster T (grand_T@web.de)


Intro 
e|------------------------------------|----------------------------0-------|
H|------8--------2--------0---------1-|------5-------3-------0-----1-------|
G|----5--------4--------0---------2---|----5-------4-------0-----2---------|
D|--7--------5--------2---------3-----|--7-------5-------2-----3-----------|
A|------------------------------------|------------------------------------|
E|------------------------------------|------------------------------------|
                                                                        
Verse
e|-------------------------------------------------------------------------|
H|------5---8-6-5------3---653-------0---3-1-0------1-3/5p3-0-1------------|
G|----5---5----------4---4----4----0---0----------2------------------------|
D|--7--------------5-------------2--------------3--------------------------|
A|-------------------------------------------------------------------------|
E|-------------------------------------------------------------------------|
                                                                        

e|------------5------------------------------------------------------------|
H|------5---8---6-5------3---653-------0---3-1-0-----0-1---0-1-------------|
G|----5---5------------4---4----4----0---0---------2-----2-----------------|
D|--7----------------5-------------2---------------3-----3-----------------|
A|-------------------------------------------------------------------------|
E|-------------------------------------------------------------------------|
                                                                              
Chours
e-----|-----|------|----------------|-----|--3--|--5-----------------------|
H--7--|-----|--12--|--14---------7--|-----|--3--|--5-----------------------|
G--7--|-----|--12--|--14---------7--|-----|--4--|--6-----------------------|
D--7--|-----|--12--|--14---------7--|-----|--5--|--7-----------------------|
A--5--|-----|--10--|--12---------5--|-----|--5--|--7-----------------------|
E-----|-----|------|----------------|-----|--3--|--5-----------------------|

e|--------------------------------------------------------------------|
B|-10---------------3-------5-------10----------3-------5-------------|
G|-11---------------4-------6-------11----------4-------6-------------|
D|-12---------------5-------7-------12----------5-------7-------------|
A|-12---------------5-------7-------12----------5-------7-------------|
E|--------------------------------------------------------------------|

Solo:

e|-12-10-12-12----12----10--12----------------|
B|-----------------------------12b(14)-10-----|
G|--------------------------------------------|
D|--------------------------------------------|
A|--------------------------------------------|
E|--------------------------------------------|

e|--------------------------------------------|
B|-15-13-15-15----15----13--15----------------|
G|-----------------------------14b(16)-12-----|
D|--------------------------------------------|
A|--------------------------------------------|
E|--------------------------------------------|

e|-12-10-12-12--------10--12------------------|
B|-----------------------------12b(14)-10-----|
G|--------------------------------------------|
D|--------------------------------------------|
A|--------------------------------------------|
E|--------------------------------------------|
[ Tab from: http://www.guitartabs.cc/tabs/r/red_hot_chili_peppers/zephyr_song_tab_ver_5.html ]
e|--------------------------------------------|
B|-15-13-15-15--------15-13-15----------------|
G|-----------------------------14b(16)-14-12--|
D|--------------------------------------------|
A|--------------------------------------------|
E|--------------------------------------------|

Bridge  
e|---------------------------------------------------------------------------|
B|--8----3----0----1---------------------------------------------------------|
G|--5----4----0----2---------------------------------------------------------|
D|--7----5----2----3---------------------------------------------------------|
A|---------------------------------------------------------------------------|
E|---------------------------------------------------------------------------|

Played in chours the last times
    D                                                G
e|--------14-------14----14-------14-------14----14--------15-------15----15-|
B|--15-15----15-15----15----15-15----15-15----15-----------------------------|
G|---------------------------------------------------12-12----12-12----12----|
D|---------------------------------------------------------------------------|
A|---------------------------------------------------------------------------|
E|---------------------------------------------------------------------------|
    A                          D
e|--------17-------17----17--------14-------14----14-------14-------14----14-|
B|---------------------------15-15----15-15----15----15-15----15-15----15----|
G|--14-14----14-14----14-----------------------------------------------------|
D|---------------------------------------------------------------------------|
A|---------------------------------------------------------------------------|
E|---------------------------------------------------------------------------|
    G	                   A		      D
e|--------15-------15----15-------17-------17----17-------14-------14--------|
B|--------------------------------------------------15-15----15-15----15-15--|
G|--12-12----12-12----12----14-14----14-14----14-----------------------------|
D|---------------------------------------------------------------------------|
A|---------------------------------------------------------------------------|
E|---------------------------------------------------------------------------|
		         G 		       A
e|-15-------14-------14-----------15-------15----15-------17-------17----17--|
B|----15-15----15-15----15---------------------------------------------------|
G|--------------------------12-12----12-12----12----14-14----14-14----14-----|
D|---------------------------------------------------------------------------|
A|---------------------------------------------------------------------------|
E|---------------------------------------------------------------------------|
   D					     G
e|-------14-------14-------15-------14-------14-----------15-------15----15--|
B|-15-15----15-15----15-15----15-15----15-15----15---------------------------|
G|--------------------------------------------------12-12----12-12----12-----|
D|---------------------------------------------------------------------------|
A|---------------------------------------------------------------------------|
E|---------------------------------------------------------------------------|
   A                         
e|-------17-------17----17---15----------------------------------------------|
B|---------------------------17----------------------------------------------|
G|-14-14----14-14----14------17----------------------------------------------|
D|---------------------------------------------------------------------------|
A|---------------------------------------------------------------------------|
E|---------------------------------------------------------------------------|

Comments