Red Hot Chili Peppers - Zephyr Song Chords & Tabs

 

Zephyr Song Chords & Tabs

Red Hot Chili Peppers Chords & Tabs

Version: 2 Type: Tab 0 ratings
1 star 2 stars 3 stars 4 stars 5 stars
comments

Zephyr Song Tab

   
I said I would be submitting some more tabs from the new RHCP album.  This is 100% correct.-Novickane

Intro-
E--------3-------------------------------0--------------------0-----
B-----1----------6--------0-------1----1---------3-----0------1-----
G--2----------4--------0-------2----2---------4------0------2--------
D----------5--------2-------3--------------5------2------3-----------
A--------------------------------------------------------------------
E--------------------------------------------------------------------

Verse
Slight variations as song progresses
E---------0-3-1-0------------------------------------------------------------
B------1-----------------3---6-5-3-------0---3-1-0------1-3/5-3-1-1----------
G---2-----------------4---4------------0---0----------2------------------------
D-------------------5----------------2--------------3--------------------------
A-------------------------------------------------------------------------------
E--------------------------------------------------------------------------------
[ Tab from: http://www.guitartabs.cc/tabs/r/red_hot_chili_peppers/zephyr_song_tab_ver_2.html ]
E---------0-3-5-0---------------------------------------------------------------
B------1-----------------3-6-5-3---------0---3-5-0------1-------1---------------
G---2-----------------4----------------0---0----------2-------2-----------------
D------------------5----------------2---------------3-------3-------------------
A----------------------------------------------------------------------------------
E----------------------------------------------------------------------------------

Chorus
D, G, A

Solo
E--12-10-12-12--12-10-12--------------------10-8-10-10--10-10-12-----------------
B-------------------------------12b13r12-10------------------------------12b13r12-10--
G----------------------------------------------------------------------------------------------
D----------------------------------------------------------------------------------------------
A----------------------------------------------------------------------------------------------
E-----------------------------------------------------------------------------------------------

E--12-10-12-12--10-12--------------------10-8-10-10—10-8-10-----------------------
B---------------------------12b13r12-10-----------------------------12b13r12-10-------
G----------------------------------------------------------------------------------------------
D----------------------------------------------------------------------------------------------
A----------------------------------------------------------------------------------------------
E-----------------------------------------------------------------------------------------------
Comments