Red Hot Chili Peppers - Zepher Song Chords & Tabs

 

Zepher Song Chords & Tabs

Red Hot Chili Peppers Chords & Tabs

Version: 1 Type: Bass Tab 1 rating
1 star 2 stars 3 stars 4 stars 5 stars
comments

Zepher Song Bass Tab

song: the zepher song
artist red hot chili peppers
album: by the way
tabbed by rj mckee  rhcpfan31@hotmail.com
   i heard this song at redhotchilipeppers.com.  
intro is just guitar and drums for a couple of measures then flea 
join's in 
D--5---0--------------D
G----------2----3-----G
A---------------------A
E---------------------E
 play that once then play verse:
D----------------------------------------------------------D
G--------------------------2--2-2-2-2---3------------------G
A----8-10-8-----3-5-3--------------------------------------A
E--8----------3-----------------------------1--------------E
chorus:
when anthony sings " fly away on my zepher, i feel it more than ever"
D--7-7-7-7-7-7-7-7--4-4-4-4-5-5-5-5-----D
G---------------------------------------G
A---------------------------------------A
E---------------------------------------E
[ Tab from: http://www.guitartabs.cc/tabs/r/red_hot_chili_peppers/zepher_song_btab.html ]
Comments