Red Hot Chili Peppers - Warped Chords & Tabs

 

Warped Chords & Tabs

Red Hot Chili Peppers Chords & Tabs

Version: 1 Type: Tab 0 ratings
1 star 2 stars 3 stars 4 stars 5 stars
comments

Warped Tab

   
#----------------------------------PLEASE NOTE---------------------------------#
#This file is the author's own work and represents their interpretation of the #
#song. You may only use this file for private study, scholarship, or research. #
#-----------------------------------------------------------------------------

SUBMITTED BY treyrab
treyrab@hotmail.com

Verse Riff

e-|---------------------------------|-------------------------------|
B-|---------------------------------|-------------------------------|
G-|---------------------------------|-------------------------------|
D-|---------------------------------|-------------------------------|
A-|-----5h7-x-5h7-x-5h7-x-5h7-x-----|-----5h7-x-5h7-x-5h7-x-5h7-x---|
E-|-0---------------------------5---|-0---------------------------5-|

    So much love                      So rare to dare
  

Chorus 
[ Tab from: http://www.guitartabs.cc/tabs/r/red_hot_chili_peppers/warped_tab.html ]
    G5 F#5 G5          G5 F#5 G5
e-|-----------------|------------------|
B-|-----------------|------------------|
G-|-----------------|------------------|
D-|-12--11--12------|--12--11--12------|
A-|-10---9--10------|--10---9--10------|
E-|-----------------|------------------|

    She said
    All the way


Verse 2
Chorus

2nd part of Chorus

     G5 F#5 E5        G5 F#5 D5        G5 F#5 A5         C5 B5 A5 G5 F#5 E5 
e-|----------------|----------------|-----------------|--------------------|
B-|----------------|----------------|-----------------|--------------------|
G-|--12--11--9-----|--12--11--7-----|--12--11--14-----|--17-16-14-12-11--9-|
D-|--12--11--9-----|--12--11--7-----|--12--11--14-----|--17-16-14-12-11--9-|
A-|----------------|----------------|-----------------|--------------------|
E-|----------------|----------------|-----------------|--------------------|
  
   Everyday                          Warped and scared


Solo 
Verse 3


Bridge

G-|----------------------------|-----------------------------|
D-|----------------------------|-----------------------------|
A-|--7-x-5-x-x-7-x-5-x-x-10-9--|--7-x-5-x-x-7-x-5-x-x-11-10--|
E-|----------------------------|-----------------------------|
Comments