Red Hot Chili Peppers - Venice Queen Chords & Tabs

 

Venice Queen Chords & Tabs

Red Hot Chili Peppers Chords & Tabs

Version: 1 Type: Tab 3 ratings
1 star 2 stars 3 stars 4 stars 5 stars
comments

Venice Queen Tab

   
#----------------------------------PLEASE NOTE--------------------------------#
#This file is the author's own work and represents their interpretation of the#
#song. You may only use this file for private study, scholarship, or research.#
#-----------------------------------------------------------------------------#
#-- File created with Instab - http://www.pconline.com/~smcarey/instab.html --#
#-----------------------------------------------------------------------------#

Author/Artist: Red Hot Chili Peppers
Title: Venice Queen
Album: By the Way
Transcribed by: Chris Valente
Email: RedHotMetallica@aol.com

In this song for the 2nd and 3rd parts there's a 2nd guitar appegregating the chords.
Have fun with this, it's a great song.

  Part 1
[ Tab from: http://www.guitartabs.cc/tabs/r/red_hot_chili_peppers/venice_queen_tab.html ]
E------------------------------------|----|----3-----|---3--------------------
B------12-----12-----12--------------|----|----3-----|---3--------------------
G----9----9------9-------9---9-12-11-|-x3-|----4-----|---0--------------------
D--9--------9------9-------9---------|----|----5-----|---2--------------------
A------------------------------------|----|----3-----|---0--------------------
E------------------------------------|----|----------|------------------------
  Em                                       Cmaj7sus2   A7sus4add7              

  Part 2

E--0---|--0--|-----|----0----|---0--------------------------------------------
B--0---|--1--|-----|----0----|---3--------------------------------------------
G--0---|--0--|--x3-|----2----|---2--------------------------------------------
D--2---|--2--|-----|----2----|---0--------------------------------------------
A--2---|--3--|-----|----0----|------------------------------------------------
E--0---|-----|-----|---------|------------------------------------------------
   Em     C           Asus2     Dsus2                                 

  Part 3

E------|---3---|----0---------------------------------------------------------
B--2---|---3---|----1---------------------------------------------------------
G--2---|---0---|----2---------------------------------------------------------
D--2---|---0---|----3---------------------------------------------------------
A--0---|---2---|----3---------------------------------------------------------
E------|---3---|----1---------------------------------------------------------
   A       G      Fmaj7                                               

Comments