Red Hot Chili Peppers - Venice Queen Chords & Tabs

 

Venice Queen Chords & Tabs

Red Hot Chili Peppers Chords & Tabs

Version: 3 Type: Bass Tab 0 ratings
1 star 2 stars 3 stars 4 stars 5 stars
comments

Venice Queen Bass Tab

   
From: ryan_p25@hotmail.com
Date: Monday, 26th of april, 4:01 PM, 2004
Subject: Bass Tab for Venice Queen by Reh Hot Chili Peppers
Tunning: Standard    G-D-A-E

/ = Slide up
\ = Slide Down

Intro: (Guitar only, Bass Comes in at 0:16)
G|-------------------------------------------------------------------------|
D|-------------------------------------------------------------------------|
A|77777777777777-56-77777777777777-56-77777777777777-56-77777777777777-56--|
E|-------------------------------------------------------------------------|

Second part of Intro:
G:|---------------------------------|
D:|---------------------------------|
A:|3-3-3--3-3-33-0-0-0--0-0-00------|
E:|---------------------------------|
(Repeat this unill 2:20)

Little Brigde
G:|--------------------------------------|
D:|--------------------------------------|
A:|77777777777777-5-6-77777777777777-5-6-|
E:|--------------------------------------|

G:|---------------------------------|
D:|---------------------------------|
A:|3-3-3--3-3-33-0-0-0--0-0-00------|
E:|---------------------------------|
[ Tab from: http://www.guitartabs.cc/tabs/r/red_hot_chili_peppers/venice_queen_btab_ver_3.html ]
Then:
G|-------------------------------------------------------------------------|
D|-------------------------------------------------------------------------|
A|77777777777777-56-77777777777777-56-77777777777777-56-77777777777777-56--|
E|-------------------------------------------------------------------------|

At 2:52 play
G:|-----------------------------------------------------|
D:|2-22-----2-22-----2-22-----2-2-2-2-2/-12-12-12-12-12-|
A:|-----3-2------3-2------3-2---------------------------|   (Repeat X3)
E:|-----------------------------------------------------|

Second part:
G:|----------------------------|
D:|2-22-----2-22-----2-22------|
A:|-----3-2------3-2------3-2--|  
E:|----------------------------|

At 3:34 play
G|--------------------------------------------------------------------------|
D|7-7-7-7-7-7-7-77-7--------------------------------------------------------|
A|--------------------8-8-8-8-8-8-8-88-8-7-7-7-7-7-7-7-77-7-5-5-5-5-5-5-5555|
E|--------------------------------------------------------------------------|

Then at 4:33 play
G|--------------------------------------------------------------------------|
D|7-7-7-7-7-77-7------------------------------------------------------------|
A|---------------8-8-8-8-8-88-8-7-7-7-7-7-7-77-7-5-5-5-5-5-55-5/-12-12121212|
E|--------------------------------------------------------------------------|
Comments