Red Hot Chili Peppers - Universally Speaking Chords & Tabs

 

Universally Speaking Chords & Tabs

Red Hot Chili Peppers Chords & Tabs

Version: 1 Type: Tab 1 rating
1 star 2 stars 3 stars 4 stars 5 stars
comments

Universally Speaking Tab

#----------------------------------PLEASE NOTE--------------------------------#
#This file is the author's own work and represents their interpretation of the#
#song. You may only use this file for private study, scholarship, or research.#
#-----------------------------------------------------------------------------#
#-- File created with Instab - http://www.pconline.com/~smcarey/instab.html --#
#-----------------------------------------------------------------------------#

Author/Artist: Red Hot Chili Peppers
Title: Universally Speaking
Album: By the Way
Transcribed by: Chris Valente
Email: RedHotMetallica@aol.com

 Verse

------------------------------------------------------------------------------
------------------------------------------------------------------------------
--7---7--7-7-7--7-7---9---9---9--9-9-9--9-9-----------------------------------
--x---x--x-x-x--x-x---x---x---x--x-x-x--x-x-----------------------------------
--5---5--5-5-5--5-5---7---7---7--7-7-7--7-7-----------------------------------
------------------------------------------------------------------------------
 
 Chorus                                                                       

------------|------|-----|----|----|-----|-----|------------------------------
---------14-|--12--|--12-|-16-|----|-----|-----|------------------------------
---------14-|--13--|--12-|-16-|-x2-|-----|--4--|--9---------------------------
---------14-|--13--|--12-|-16-|----|--4--|--x--|--x---------------------------
---------12-|--11--|--10-|-14-|----|--x--|--2--|--7---------------------------
------------|------|-----|----|----|--2--|-----|------------------------------                       A    G#m     G     B         F#    B     E  (let ring)               
 Solo
[ Tab from: http://www.guitartabs.cc/tabs/r/red_hot_chili_peppers/universally_speaking_tab.html ]
------------------------------------------------------------------------------
------------------------------------------------------------------------------
-11-9----9-------------------9------------9-----------------------------------
------12---12-11---12--11-12----12--11-12-------------------------------------
--------------------------------------------12--12-12-12----------------------
------------------------------------------------------------------------------                                                                   
------------------------------------------------------------------------------
------------------------------------------------------------------------------
-11-9----9-------------------9------------9/14--14----------------------------
------12---12-11---12--11-12----12--11-12-------------------------------------
------------------------------------------------------------------------------
------------------------------------------------------------------------------
                                                                              
------------------------------------------------------------------------------
------------------------------------------------------------------------------
-11-9----9-------------------9------------------------------------------------
------12---12-11---12--11-12----12--11-12-11----------------------------------
---------------------------------------------12--12-12-12---------------------
------------------------------------------------------------------------------
                                                                              
------------------------------------------------------------------------------
------------------------------------------------------------------------------
------------------------------------------------------------------------------
------------------------12----------------------------------------------------
-12-10-9^-------12---12-------------------------------------------------------
----------10-10---------------------------------------------------------------
Comments