Red Hot Chili Peppers - Universally Speaking Chords & Tabs

 

Universally Speaking Chords & Tabs

Red Hot Chili Peppers Chords & Tabs

Version: 4 Type: Bass Tab 0 ratings
1 star 2 stars 3 stars 4 stars 5 stars
comments

Universally Speaking Bass Tab

Song: Universally Speaking
Artist: Red Hot Chili Peppers
Album: By the Way
Trenscribed by: Chris Valente
E-Mail: RedHotMetallica@aol.com

  Verse

G|-7---7---7---7---7---7-----6-----9---9---9---9---9---9---6------
D|-------------------------5---5-------------------------5---5----
A|---5---5---5---5---5---5-----------7---7---7---7---7------------
E|----------------------------------------------------------------

  Chorus

G|---------------14/16-16-16--16/14-13---------------14/13-13-----
D|----------------------------------------------------------------
A|-12--12--12-12------------------------11-11--11-11--------------
E|----------------------------------------------------------------

[ Tab from: http://www.guitartabs.cc/tabs/r/red_hot_chili_peppers/universally_speaking_btab_ver_4.html ]
G|--------------------------|---------------4--4-4----------------
D|----------------9--9---9\-|--4-4-4--4-4-4-----------------------
A|-10--10-10--10------------|-------------------------------------
E|--------------------------|------------------------0------------
                              Second Time
  Outro

G|----14-------14-------12-------12-------12-------12-------12----
D|-------14-------14-------12-------12-------12-------12-------12-
A|-12-------12-------10-------10-------10-------10-------10-------
E|----------------------------------------------------------------


G|----------------------------------------------------------------
D|----12-------12-------------------------------------------------
A|-------12-------12----------------------------------------------
E|-10-------10-------10-------------------------------------------
Comments