Red Hot Chili Peppers - Under The Bridge Chords & Tabs

 

Under The Bridge Chords & Tabs

Red Hot Chili Peppers Chords & Tabs

Version: 7 Type: Tab 0 ratings
1 star 2 stars 3 stars 4 stars 5 stars
comments

Under The Bridge Tab

   
-------------------------------------------------------------------------------
	        Under the bridge - Red Hot Chili Peppers
-------------------------------------------------------------------------------

By: Discoboy

IMPORTANT: this song is played with a capo on 2nd fret (F#)

intro
e|---------------------------------------------------------------------------|
B|-1-------1-------------------------------1-----------1h3p1-----------------|
G|-----0-----0---------1-------1-------------------0---------0-------1-------|
D|---2---2-----------------2-----2-2-0---------2-----2-------------------2---|
A|-3-----------2-0-------2---2---------3-0-2h3---3-------------0h2-----2---2-|
E|-----------------3-2-0---------------------------------------0--h2-0-------|

e|---------------------------------------------------------------------------|
B|-----------------------1-------------------------------------------1h3p1---|
G|-1-----------------0-----0---------1-------1-------------------0---------0-|
D|---2-2-0---------2---2-----------------2-----2-2-0---------2-----2---------|
A|---------3-0-2h3-----------2-0-------2---2---------3-0-2h3---3-------------|
E|-------------------------------3-2-0---------------------------------------|

e|-------------------------|
B|-------------------------|
G|-----1-------1-----1-----|
D|-2/4-----2-----2-----2---|
A|-0/2---2---2-----2-----2-|
E|-----0-------------------|

verse

D	     A		   Bm		F#  G
   sometimes i feel like i don't have a partner
D	     A		 Bm	 G
   sometimes i feel like my only friend
	  D      A            Bm      F#  G
   is the city i live in, the city of angels
   D	     A      Bm        G     Dmaj7
   lonely as i am together we cry

[ Tab from: http://www.guitartabs.cc/tabs/r/red_hot_chili_peppers/under_the_bridge_tab_ver_7.html ]
   i drive on her streets 'cause she's my companion

   i walk through her hills 'cause she knows who i am

   she sees my good deeds and she kisses me windy

   i never worry, now that is a lie

chorus

   Em			D
   i don't ever want to feel
A	      Em
   like i did that day
   Em			D
   take me to the place i love
A	      Em
   take me all the way


D     A   Bm   F# G     D   A   Bm   G
   ...yeah yeah yeah

   it's hard to believe that there's nobody out there

   it's hard to believe that i'm not alone

   at least i have her love, the city she loves me

   lonely as i am together we cry

repeat chorus

for the "no no" parts and the "under the bridge downtown" parts:
G   Bb   F   Eb

   under the bridge downtown

   is where i drew some blood

   under the bridge downtown

   i could not get enough

   under the bridge downtown

   forgot about my love

   under the bridge downtown

   i gave my life away...

outro
e|--------------------------0------------------------------------------------|
B|-------------3/10---3-1-1-1-----0---3-3-3-3-3h6p3---1-1-1-----------3-3-3--|
G|------------------3-3-2---2-2h3-2-0-4-4-3---------3-2---2-3-3h5p3---4-4-3--|
D|-3/5h8-5\3/5------3-3-3---3-----3---5---3-----------3---3---------5-5---3--|
A|---------------------------------------------------------------------------|
E|---------------------------------------------------------------------------|

e|-------------------------------------------|
B|-3-6p3---1-1-1-------3-3-3-3-----1-1-1---0-|
G|---3---3-2---2-2h3-0-4---3---5p3-2---2-3-0-|
D|---------3---3-------5---3---3---3---3---0-|
A|-----------------------------------------0-|
E|-----------------------------------------3-|
===============================================================================
Comments