Red Hot Chili Peppers - Under The Bridge Chords & Tabs

 

Under The Bridge Chords & Tabs

Red Hot Chili Peppers Chords & Tabs

Version: 11 Type: Tab 0 ratings
1 star 2 stars 3 stars 4 stars 5 stars
comments

Under The Bridge Tab

   
Tabbed by TomAnthony

Under the Bridge
Red Hot Chili Peppers
Blood Sugar Seax Magik

Note-Very long tab

*=pinch harmonic =place thumb lightly on string after striking note
h=hammer on
p=pull off
/=slide up
\=slide down
Intro
           
e------------------------------------------------------------
B--3-------3*---------------2--------------------------------
G------2-----2----------------------3*-----------------------
D----4---4----------------------4-----4----4--2--0-----------
A--5------------4--2--0-------4---4----------------2---------
E-----------------------4---2--------------------------------

e------------------------------------------------------------
B-----3------------3-h-5-p-5---------------------------------
G------------2---------------2-------------------3-----------
D-------4-------4---------------4/6-6\-------4----4---4--2-0-
A-4-h-5---5---------------------5/7 7\-----4---4------------2
E----------------------------------------2-------------------

e------------------------------------------------------------
B-3------------3*-------------2------------------------------
G----------2------2-------------------3*---------------------
D-------4----4--------------------4-----4---4-2-0------------
A-4-h-5--5------------4-2-0-----4---4-------------2----------
E---------------------------4-2------------------------------

e------------------------------------------------------------
B-3-------------3-h-5-p-3------------------------------------
G-----------2-------------2----------------3---3-------------
D-------4-----4-------------4/6-6\------4----4---4-----------
A-4-h-5---5-----------------5/7-7\----4--4-----4---4---------
E-----------------------------------2------------------------

 Whew!good thing I wrote this down!

1st Verse
   E      B      C#     A...
e----------------4----------|------------4---0---------------
B--9----4--------5--4---2---|---9---4----5---2---------------
G--9----4---4/6-----4---2---|---9---4----6---2---------------
D--9----4---4/6---------2---|---9---4----6---2---------------
A--7--------2/4--4------0---|---7----------------------------
E-------------------4-------|--------------------------------

e-------------4-------------|---7---2----4---0---------------
B--9----4-----5-----4---2---|---9---4----5---2---------9-----
G--9----4-----6-----4---2---|---9---4----6---2---------8-----
D--9----4-----6---------2---|---9---4----6---2---------9-----
A--7--------------------0---|---7---2----4---0---------7-----
E-------------------4-------|--------------------------------

2nd Verse
   E               B                C#           A...
e-------------------------------------------------------------------
B--------7--------------7--------9-----9------4-----10-h-12-p10-----
G---9----8--8-8-h-9-p-8-8--------9--9--9--9---4--9--------------9---
D-9-9----9--9-9---------9-9/11------11----11-----11-------------11--
A-7-7--9-9----------------9/11-------------------0--------------0---
E------7--------------------------------------4---------------------

e-------------------------------------------------------------|r|---
B--------7--------------7--------9-----9------------10--------|e|-9-
G---9----8--8-8-h-9-p-8-8--------9--9--9--9------9-----9------|p|-8-
D-9-9----9--9-9---------9-9/11------11----11-----11-------11--|e|-9-
A-7-7--9-9----------------9/11-------------------0------------|a|-7-
E------7------------------------------------------------------|t|---

Chorus
  F#          E           B             F#
e--------------------11-11-11-11-----9--9--9--9---9--|r|
B-x-x-10----9-9------12-12-12-12-----10-10-10-10--10-|e|
G-x-x-11----9-9------11-11-11-11-----11-11-11-11--11-|p|
D-x-x-11----9-9------9--9--9--9------11-11-11-11--11-|e|
A-x-x-9-----7-7----------------------9--9--9--9---9--|a|
E----------------------------------------------------|t|
[ Tab from: http://www.guitartabs.cc/tabs/r/red_hot_chili_peppers/under_the_bridge_tab_ver_11.html ]
Post Chorus
e-------------------------------------------------------------------
B--------7--7-7-h-9-p-7-7--------9-----9------4-----10-h-12-p10-----
G---9----8--8-8---------8--------9--9--9--9---4--9--------------9---
D-9-9----9--9-9---------9-9/11------11----11-----11-------------11--
A-7-7--9-9----------------9/11-------------------0--------------0---
E------7--------------------------------------4---------------------


e-----------------------------------------------------------|---
B--------7--7-7-h-9-p-7-7--------9-----9------------10------|---
G---9----8--8-8---------8--------9--9--9--9------9-----9----|---
D-9-9----9--9-9---------9-9/11------11----11-----11------11-|---
A-7-7--9-9----------------9/11-------------------0----------|---
E------7----------------------------------------------------|---

3rd Verse
e-------------------------------------------------------------------
B--------------------------------9-----9------4-----9-h-10----------
G---9----8--8-h-9-p-8------------9--9--9--9---4--9---------9--------
D-9-9--------------------9/11------11-----11-----11---------11------
A-7-7--------------------9/11--------------------0------------------
E------7--------------------------------------4---------------------


e------------7-h-9-p-7----------------------------------------------
B--------7---7-------7-----------9-----9-------------10-------------
G---9------8---------------------9--9--9--9------9------9-----------
D-9-9--9-----------------9/11-------11----11-----11-------11--------
A-7-7--------------------9/11--------------------0------------------
E-------------------------------------------------------------------

e-------------------------------------------------------------------
B--------7--------------7--------9-----9------4-----10-h-12-p10-----
G---9----8--8-8-h-9-p-8-8--------9--9--9--9---4--9--------------9---
D-9-9----9--9-9---------9-9/11------11----11-----11-------------11--
A-7-7--9-9----------------9/11-------------------0--------------0---
E------7--------------------------------------4---------------------

e------------7-h-9-p-7-----------------------------------------------
B--------7---7-------7-----------9-----------------10-----------9----
G---9------8---------------------9--9----------9------9---------8----
D-9-9--9-----------------9-9/11-----11---------11-------11------9----
A-7-7--------------------9-9/11----------------0----------------7----
E--------------------------------------------------------------------

Repeat the 1st
Chorus


Outro Chorus
   A         C        G         F
e------------------------------------|---------------|
B-5-5---8-8-8-8--8---3-3--1-1-1-1-1--|-Repeat-4-times|
G-6-6---9-9-9-9--9---6-6--2-2-2-2-2--|---------------|
D-7-7---10101010-10--5-5--3-3-3-3-3--|---------------|
A-7-7---10101010-10--5-5--3-3-3-3-3--|---------------|
E-5-5---8-8-8-8--8---3-3--1-1-1-1-1--|---------------|

e-12121212121212-12121212121212-12121212121212-15151515151515-----
B-10101010101010-10101010101010-10101010101010-12121212121212-----
G-10101010101010-10101010101010-10101010101010-12121212121212-----
D-10101010101010-10101010101010-10101010101010-12121212121212-----
A-----------------------------------------------------------------
E-----------------------------------------------------------------

e------------------------------------|---------------|
B-5-5---8-8-8-8--8---3-3--1-1-1-1-1--|-Repeat-4-times|
G-6-6---9-9-9-9--9---6-6--2-2-2-2-2--|---------------|
D-7-7---10101010-10--5-5--3-3-3-3-3--|---------------|
A-7-7---10101010-10--5-5--3-3-3-3-3--|---------------|
E-5-5---8-8-8-8--8---3-3--1-1-1-1-1--|---------------|

Outro
e-00-000000-0-----0000---00-00003p0-00-000-0----------------------
B-22-111111-0-3-p-1111---22-11111-1-00-111-1h3p-------------------
G---------------------------------------------2p0-----------------
D-----------------------------------------------------------------
A-----------------------------------------------------------------
E-----------------------------------------------------------------

Ha!Take that scepticle amatuer guitarists!
Comments