Red Hot Chili Peppers - True Men Dont Kill Coyotes Chords & Tabs

 

True Men Dont Kill Coyotes Chords & Tabs

Red Hot Chili Peppers Chords & Tabs

Version: 3 Type: Bass Tab 0 ratings
1 star 2 stars 3 stars 4 stars 5 stars
comments

True Men Dont Kill Coyotes Bass Tab

True Men Don't Kill Coyotes
Red Hot Chili Peppers
First song, first cd, the very best of the chili peppers
Tabbed by Randy Torres

T=Slap                h=hammer on     a dot (.) above a note means make
P=Pop                 p=pull-off      the note short
X=Deadnote (muted)
This is an awesome song with one of the coolest intros i've ever heard, and i love 
it.

Not sure on accuracy on the intro, but it sounds pretty good to me, and it'll at least 
started :)

        v-let the notes on the top two strings ring out to the next
G-|-------------9-------7------|---------------.---.--------|
D-|-----9----------------------|-------5-------7-.-7--.-----|
A-|-7------XX------XX----------|--0h5-----55-----X----7-----|   x2
E-|-0------00------00----------|----------00-----X----0-----|
    T   P  T T  P  T T  P         T    P  TT   P T P  T
                                          ^make these sorta muted, or just
                                           slap them lightly
[ Tab from: http://www.guitartabs.cc/tabs/r/red_hot_chili_peppers/true_men_dont_kill_coyotes_btab_ver_3.html ]
Verse
        v-rings till you hit the g(3rd fret)on the E string
G-|---.------------------------|
D-|---2-2----------------------|
A-|----------------------------|  x8
E-|-0-----0----3--3h5p3--------|
    ^The verse is all slap/popped, though the string isn't slapped very hard

G-|---4-4----------4-4---------|
D-|----------------------------|
A-|-2-----2---0--2-----2----5--|
E-|----------------------------|
After this play the verse 10 more times, then play the variation, then the verse two 
times

Pre-chorus
G-|----------------------------|----------------------------|
D-|----------------------------|----------------------------|
A-|--2-0-2-0-2-0-2-0-2---------|---2-0-2-0-2-0-5-3-5--------|
E-|----------------------------|----------------------------|
This riff sadly is not slapped....:(

Chorus is the same as the verse

During the guitar solo Flea just plays A, listen to the song for the rhythm....nuttin 
there, and the outro is the same as the intro played once, and there you gots it.

Questions and comments and stuff are always welcome, jus email me at randybabe123@hotmail.com
Comments