Red Hot Chili Peppers - Track 13 Organic Rarities Chords & Tabs

 

Track 13 Organic Rarities Chords & Tabs

Red Hot Chili Peppers Chords & Tabs

Version: 1 Type: Tab 0 ratings
1 star 2 stars 3 stars 4 stars 5 stars
comments

Track 13 Organic Rarities Tab

   
Red Hot Chili Peppers - Track 13 from Organic Rarities

Bass: really fast and same throughout song
G|-----7-----5-----7-----5-|  all popped
D|-------------------------|
A|-0-0---0-0---0-0---0-0---|  all slapped
E|-------------------------|

Guitar:
e|---------------------------------------12-10-8--------------
B|-10----------13-12-8/10---------------------------6---------   x2
G|---------------------------------------------------------5/7
D|------------------------------------------------------------

e|---------------12-12-12-12-15-15-15-15-12----------12-12-12-12-15-15-15-15-12
B|-10------------10-10-10-10-12-12-12-12-10----------10-10-10-10-12-12-12-12-10
G|-----------------------------------------------------------------------------
D|-----------------------------------------------------------------------------
[ Tab from: http://www.guitartabs.cc/tabs/r/red_hot_chili_peppers/track_13_organic_rarities_tab.html ]
e|----------------------------------------------12-10-8--------------
B|-13-12-8/10----------13-8/10-----------------------------6---------
G|----------------------------------------------------------------5/7
D|-------------------------------------------------------------------

e|--------------------------------------------------------------------12-10-8--------------
B|-10----------5-----13-12-8/10----------13-12-10-------------------------------6----------
G|--------------------------------------------------------------------------------------5/7
D|-----------------------------------------------------------------------------------------

e|----------------------------12-12-12-12-15-15-15-15-12
B|-------------------10-------10-10-10-10-12-12-12-12-10
G|------------9-----------------------------------------
D|-7----------------------------------------------------

e|-12-12-12-12-15-15-15-15-12-----------------------------------12-10-8-------------
B|-10-10-10-10-12-12-12-12-10----------13-12-8/10--------------------------6--------
G|--------------------------------------------------------------------------------5/7
D|----------------------------------------------------------------------------------

e|----|
B|-10-|
G|----|
D|----|

Haz
Comments