Red Hot Chili Peppers - Tiny Dancer Chords & Tabs


Tiny Dancer Chords & Tabs

Red Hot Chili Peppers Chords & Tabs

Version: 1 Type: Bass Tab 0 ratings
1 star 2 stars 3 stars 4 stars 5 stars

Tiny Dancer Bass Tab

"Tiny Dancer" by Elton John
Performed by the Red Hot Chili Peppers
Bass part by Michael Balzary (Flea)
Tabbed by Dan Bogosian (UtBDan)
Visit UtBDan's band at:

This is tabbed out from the version from Pinkpop 1990, availible on an official covers
CD and on video at

Flea: Here's a song, Here's a little punk rock song for you.. a little punk rock called
I think it was written by the Ramones in the early 70's, Maybe before they started - You
when it was really hard core back in the old days. Remember?

Anthony: Flea, I could have sworn this was the Dead Kennedys

Flea: No no no no no, I think it was Sham 69.

Anthony: No, this is the Buzzcocks.

Flea: You idiot! You worthless peon! Don't you know this is one of the- It must have 

Anthony: No, this is Non Non Non...
[ Tab from: ]
Flea: Hey, it was the Church or the Weirdoz maybe

AK: Hey Shut up

Flea: You shut up

(screaming and bashing...)

1... 2... 3...

Hold me closer, Tiny Dancer
Count the headlights on the highway
Lay me down in sheets of lenin
You had a busy day today

(then, upon 2nd time through)

G ------------------------------------|
D ------------------------------------|
A -8---7-7---7-8-7-5-5--3-5-3-5--5-7--|
E ------------------------------------|

G ------------------------------------|
D ------------------------------------|
A -8---7-7---7-8-7--------------------|
E -----------------3---3--------------|

G ------------------------------------|
D ------------------------------------|
A -8---7-7---7-8-7-5----5-5--5-7------|
E ------------------------------------|

G -----------------------------------------|
D -----------------------------------------|
A -8---7-7---7-8-7-----10----12--12--12----|
E -----------------3-------3-------------3-|