Red Hot Chili Peppers - Time Chords & Tabs

 

Time Chords & Tabs

Red Hot Chili Peppers Chords & Tabs

Version: 6 Type: Bass Tab 0 ratings
1 star 2 stars 3 stars 4 stars 5 stars
comments

Time Bass Tab

"Time" by the Red Hot Chili Peppers (it's not a cover of the many other songs called
Time, it's a b-side.)
Bass part by Michael Balzary (Flea)
Tabbed by Dan Bogosian (UtBDan)
Visit UtBDan's band at:
http://www.geocities.com/underthbed/

NOTE: This was tabbed from a live bootleg recording of it. It is originally a B-side to
the single "By the way", and on the Japanese version of the album. So I guess TECHNICALLY
it's the live version, but I'm betting it doesn't truly matter that much.

INTRO

G ----------------------------------|
D ----------------------------------|
A -----------8----------------8-----|
E --5-5---55---8~~---5-5---55---8~~-|

G ----------------------------------|
D ----------------------------------|
A -----------8----------------8-----|
E --5-5---55---8~~---5-5---55---8~~-|

VERSE PART (unchanging)

G -------------------------------|
D --5--5--5--5h7--3--3--3--3h1---|
A -------------------------------|
E -------------------------------|

CHORUS

G ------------------------------5432--|
D -3h55565-3h555--3h55565-3h555-----5-|
A ------------------------------------|
E ------------------------------------|
[ Tab from: http://www.guitartabs.cc/tabs/r/red_hot_chili_peppers/time_btab_ver_6.html ]
G ------------------------------3432--|
D -3h55565-3h555--3h55565-3h555-----5-|
A ------------------------------------|
E ------------------------------------|

BRIDGE (pre last verse, post last chorus)

G -------------------------------|
D --------15~~---------11h12-11--|
A -14-14--------12-12------------|
E -------------------------------|

G -----------------------------------|
D --------15-15-15---------5-7-11----|
A -14-14------------12-12------------|
E -----------------------------------|

G -------------------------------|
D --------15~~---------11h12-11--|
A -14-14--------12-12------------|
E -------------------------------|

G -----------------------------------|
D --------15-15-15---------5-7-11----|
A -14-14------------12-12------------|
E -----------------------------------|

GUITAR SOLO (it's the same as the bridge but an octave lower, obviously)

G -----------------------|
D ------3~~--------------|
A -2-2-------0-0--4h5-4--|
E -----------------------|

G -------------------------|
D ------3-33-------5-7-11--|
A -2-2--------0-0----------|
E -------------------------|

G -----------------------|
D ------3~~--------------|
A -2-2-------0-0--4h5-4--|
E -----------------------|

G -------------------------|
D ------3-33-------5-7-11--|
A -2-2--------0-0----------|
E -------------------------|

You can improv at the end of each line. Flea's specialty. :)
Comments