Red Hot Chili Peppers - Time Chords & Tabs

 

Time Chords & Tabs

Red Hot Chili Peppers Chords & Tabs

Version: 3 Type: Bass Tab 0 ratings
1 star 2 stars 3 stars 4 stars 5 stars
comments

Time Bass Tab

artist:Red Hot Chili Peppers
Track :Time (B-side to the By The Way single)
Tabbed by Daniel Jones

Intro

G---------------|---------------|--------------------|----------------|
D---------------|---------------|--------------------|----------------|
A------------5h7|------------5h7|------------5h7p5h7-|------------5h7-|
E--5-5x-5-5x----|--5-5x-5-5x----|--5-5x-5-5x---------|--5-5x-5-5x-----|

Verse

G-----------------------------------|
D-----------------------------------|
A------------23333-----------23333--|
E--5-5-5-5-5-------1-1-1-1-1--------|

Interlude ( One Time .... )

G-------------------------------------------------|
D-------------------------------------------------|
A--5/17-17-17-17-15-15-17-15-15-17----------------|
E----------------------------------12-12-12-12-12-|

[ Tab from: http://www.guitartabs.cc/tabs/r/red_hot_chili_peppers/time_btab_ver_3.html ]
G--------------------------------------------------|
D--------------------------------17-17-17-15-15-17-|
A--17-17-17-17-15-15-17-15-15-17-------------------|
E--------------------------------------------------|


G-------------------------------------------------|
D-------------------------------------------------|
A--5/17-17-17-17-15-15-17-15-15-17----------------|
E----------------------------------12-12-12-12-12-|


G----------------------------------17-17-17-15-15-17-|
D----------------------------------------------------|
A--5/17-17-17-17-15-14-17-15-15-17-------------------|
E----------------------------------------------------|


G----------------------------------|---------------------------------|
D----------------------------------|---------------------------------|
A------------7-5-7-7-7-5-5---------|-----------9-9-7-5-5-9-7---------|
E--7-5-7-7-5---------------7-5-7-5-|-7-5-7-7-5-----------------9-7-5-|


That,s it Flea Ya Later Im gonna tab Venice Queen next it will be here 
soon im gonna take my time and make sure its perfectly correct

Comments