Red Hot Chili Peppers - Throw Away Your Television Chords & Tabs

 

Throw Away Your Television Chords & Tabs

Red Hot Chili Peppers Chords & Tabs

Version: 1 Type: Tab 0 ratings
1 star 2 stars 3 stars 4 stars 5 stars
comments

Throw Away Your Television Tab

#-----------------------------------------------------------------------------#
#-- File created with Instab - http://www.pconline.com/~smcarey/instab.html --#
#-----------------------------------------------------------------------------#

Author/Artist: Red Hot Chili Peppers
Title: Throw Away Your Television
Album: By The Way
Transcribed by: Chris Valente
Email: RedHotMetallica@aol.com

Believe it or not, there's actually some form to this song. This only sounds 
good if you have an effect with a deep phase, and a step feature. John uses an
envelope filter, I use a phase shifter. It all works. For the verses with no 
riff, light palm mute with heavy phase. For the chorus just strum open with 
heavy phase. For the Bridge/Outro, play 12th fret harmonics with step, 
overdrive, and reverb.

 Riff One (Reverb)   Fill 1   Fill 2 (Harmonics)
[ Tab from: http://www.guitartabs.cc/tabs/r/red_hot_chili_peppers/throw_away_your_television_tab.html ]
--------------------|-------|-------------------------------------------------
--------------------|-------|-12----------------------------------------------
--------------------|-12/14-|-12----------------------------------------------
----------------7-7-|-------|-12----------------------------------------------
-7-7-----10-10------|-------|-------------------------------------------------
--------------------|-------|-------------------------------------------------
  
 Riff Two (Reverb)                              

------------------------------------------------------------------------------
------------------------------------------------------------------------------
------9--7--------------------------------------------------------------------
-7---------10-9---------------------------------------------------------------
----------------10------------------------------------------------------------
------------------------------------------------------------------------------              
 Bridge (W/ Step, OD, and Reverb)
                       
-12-12------------------------------------------------------------------------
-------------------------15-15-15-15------------------------------------------
-------12-12-14-14-14-14------------------------------------------------------
------------------------------------------------------------------------------
------------------------------------------------------------------------------
------------------------------------------------------------------------------
Comments