Red Hot Chili Peppers - Throw Away Your Television Chords & Tabs

 

Throw Away Your Television Chords & Tabs

Red Hot Chili Peppers Chords & Tabs

Version: 3 Type: Bass Tab 1 rating
1 star 2 stars 3 stars 4 stars 5 stars
comments

Throw Away Your Television Bass Tab

Throw Away Your Television
Red Hot Chili Peppers
Tabbed by pIRHANA 


Intro/Main Riff

(difficult to tab spot on but this is it basically
 + there are some subtle variations in this part too)

G----------------------------------------
D----------------------------------------
A----------------------------------------
E--55-5-x5x5-0000--5-3-------------------

G----------------------------------------
D----------------------------------------
A-----7--7--7--77------------------------ 
E--55--55--5-x5--x5--8-8-----------------

Chorus

(again not spot on)

G-------------------------------------------------------------
D-------------------------------------------------------------
A-------------------------------------------------------------
E-5-5-5-5-5-5-7-7-7-7-7-7/1010/12\10-10-10--------------------
[ Tab from: http://www.guitartabs.cc/tabs/r/red_hot_chili_peppers/throw_away_your_television_btab_ver_3.html ]
G-------------------------------------------------------------
D-7-7-7-7-7-7-9-9-9-9-9-9/1212/14\1212-12-12------------------
A-------------------------------------------------------------
E-------------------------------------------------------------

Variations

G-------------------------------------------------------------
D-7-7-7-7-7-7-9-9-9-9-9-9/1212/14\12-12/14\12/14\12-12-12-----
A-------------------------------------------------------------
E-------------------------------------------------------------

G-----------------------------------------------------------------------------
D-7-7-777-777-7-9-9-999-999-9/12-12-121212-121212/14p12-121212-12-121212------
A-----------------------------------------------------------------------------
E-----------------------------------------------------------------------------


Any comments, questions, insults etc.. funkymonkey133@hotmail.com
Comments