Red Hot Chili Peppers - This Velvet Glove Chords & Tabs

 

This Velvet Glove Chords & Tabs

Red Hot Chili Peppers Chords & Tabs

Version: 5 Type: Tab

This Velvet Glove Tab

   
----------------------------------------------------------------------------
	     This Velvet Glove Intro  Red Hot Chili Peppers
----------------------------------------------------------------------------

Tabbed by: David Scully
Email: darthvaderjfs@hotmail.co.uk 

Tuning: EADGBe (standard)

This is a really good guitar part and if you can get the chords going over
the top then you've got yourself one hell of an intro.
                                                     
    Dm	                   C	                 Bb	
e|------------------------------------------------| 
B|------------------------------------------------| 
G|------------------------------------------------| 
D|--------------10---12--------10---12------------|
A|----12------------------10----------------------| 
E|-------------------------------------------13---| 

  Bb	
e|------------------------------------------------|
B|------------------------------------------------|
G|------------------------------------------------| 
D|------------------------------------------------|
A|------------------------------------------------|
E|----12----13------------------------------------|

    Dm	                   C	                 Bb	
e|------------------------------------------------| 
B|------------------------------------------------| 
G|------------------------------------------------| 
D|--------------10---12--------10---12------------|
A|----12------------------10----------------------| 
E|-------------------------------------------13---| 
[ Tab from: http://www.guitartabs.cc/tabs/r/red_hot_chili_peppers/this_velvet_glove_tab_ver_5.html ]
  Bb	
e|------------------------------------------------|
B|------------------------------------------------|
G|------------------------------------------------| 
D|------------------------------------------------|
A|------------------------------------------------|
E|----12----13------------------------------------|

    Dm	                    C                    Bb
e|------------------------------------------------|
B|------------------------------------------------|
G|-----12-----10-----9----------------------------|
D|--------------------------10-----10-------------|  
A|------------------------------------------------|
E|------------------------------------------------|

  Bb	
e|------------------------------------------------|
B|------------------------------------------------|
G|------------------------------------------------| 
D|------------------------------------------------|
A|------------------------------------------------|
E|--12--------------------------------------------|

    Dm	                    C                    Bb
e|------------------------------------------------|
B|------------------------------------------------|
G|-----14-----12-----9----------------------------|
D|--------------------------10-----12-------------|  
A|------------------------------------------------|
E|------------------------------------------------|

  Bb
e|------------------------------------------------|
B|------------------------------------------------|
G|-------------------------------------14---------|
D|----12----12----12----12-------------12---------|  
A|------------------------------------------------|
E|------------------------------------------------| 

------------------------------END-------------------------------------------