Red Hot Chili Peppers - This Velvet Glove Chords & Tabs

 

This Velvet Glove Chords & Tabs

Red Hot Chili Peppers Chords & Tabs

Version: 2 Type: Tab 0 ratings
1 star 2 stars 3 stars 4 stars 5 stars
comments

This Velvet Glove Tab

   
 Frank Verwijs
l.verwijs@gironet.nl
 This velvet glove
by: Red Hot Chili Peppers

from: Californication

Intro
repeat first part
---------------------------------------------------------------
---------------------------------------------------------------
-------------------------------------12-10-9-------------------
----10--12---10--12---------------------------10--10h12--------
-12--------10--------------------------------------------------
----------------------13--12--13p12----------------------------

----------------------------- ---------------------------------
-10-------------------------- -10---10----10------13-x13-10----
-----12--9-------7---7-7-7 -- --------------------12-x12-------
------------10--------------- ---------------------------------
----------------------------- -verse part electric ------------
----------------------------- ---------------------------------
[ Tab from: http://www.guitartabs.cc/tabs/r/red_hot_chili_peppers/this_velvet_glove_tab_ver_2.html ]
Chords verse-part acoustic   Chords chorus acoustic guitar
Dsus2 C    Am(7)  C        Dsus2 C      3X   Am7    D5
-0--0-----0-0--0--0-----0-  -0---0--0-0--  --0----------
-3--1-----0-1--1--1-----0-  -3---1--0-1--  --1------3---
-2--0-----0-2--0--0-----0-  -2---0--0-0--  --0------2---
-0--2-----2-2--2--2-----2-  -0---2--2-2--  --2------0---
----3-----3-0--0--3-----3-  -----3--3-3--  --0------0---
--------------------------  -------------  -------------

Electric part before 2nd chorus
strum chord stabs!
----------12---/15-15-
-10-12-13-10----------
-10-10-10-10--// -----
-7--7--7--7-----------
-#--#--#--#----------- # = this chord is picked a couple of times!
----------------------

electric guitar in chorus
Dm                          Em/c
--13-----------13-----------15-15-15-----/15-15-15-
--15-15-15-15--15-15-15 \---17-17-17-17 --17-17-17- repeat 3 times
-----14-14-14-----14-14 \---16-16-16-16 --16-16-16-
-(12)---------(12)-----  --------------------------
---------------------------(15)----------(15)------
---------------------------------------------------
    Am7                         D5
----15-12-12--12h15-12-12 \-----5------------------
----13-13-13--13----13-13 \-----3------------------
----14-14-14--14----14-14 \-----2------------------
-------------------------  -----0------------------
---(12)------(12)--------  ------------------------
-------------------------  ------------------------

Yes I know it is not a very good transcription!?!! if you have any comments or questions, Write to me at  l.verwijs@gironet.nl
Comments