Red Hot Chili Peppers - This Is The Place Chords & Tabs

 

This Is The Place Chords & Tabs

Red Hot Chili Peppers Chords & Tabs

Version: 4 Type: Tab 1 rating
1 star 2 stars 3 stars 4 stars 5 stars
comments

This Is The Place Tab

Artist:Red hot chili peppers
Song:This is the place
Album:By the way
[ Tab from: http://www.guitartabs.cc/tabs/r/red_hot_chili_peppers/this_is_the_place_tab_ver_4.html ]
The tuning is bit strange(C,A,D,G), but this is the 100% right
way to play the song. Just play it with the record and you'll
see! 
                                                          
G||---------------------------|--------------------------|
D||*--------------------------|--------------------------|
A||*--0--0--0--3--3-----------|-----------3--3--0--0--0--|
C||------------------7--7--7--|--5--5--5-----------------|


                                                              
--------------------------|---------------------------||
--------------------------|--------------------------*||
-----------0--0-----------|--------------------------*||
--2--2--2--------5--5--5--|--0--0--0--7--7--2--2--2---||

Tabbed by: Konsta
Comments