Red Hot Chili Peppers - This Is The Place Chords & Tabs

 

This Is The Place Chords & Tabs

Red Hot Chili Peppers Chords & Tabs

Version: 9 Type: Bass Tab 0 ratings
1 star 2 stars 3 stars 4 stars 5 stars
comments

This Is The Place Bass Tab

i dont know if this is exactly right cuz i dont have a bass guitar but
i tried it on my six string and it wounds exact


intro
g|---------------------------------------------------------------|
d|---------------------------------------------------------------|
a|-0-0-0-3-3-------------3-3-0-0-0-------------------------------|
e|-----------3-3-3-1-1-1-----------1-1-1-3-3-1-1-1-0-0-0-3-3-1-1-|
[ Tab from: http://www.guitartabs.cc/tabs/r/red_hot_chili_peppers/this_is_the_place_btab_ver_9.html ]
g|---------------------------------------------------------------|
d|---------------------------------------------------------------|
a|-0-0-0-3-3-------------3-3-0-0-0-------------------------------|
e|-----------3-3-3-1-1-1-----------1-1-1-3-3-1-1-1-0-0-0-3-3-1-1-|

g|---------------------------------------------------------------|
d|---------------------------------------------------------------|
a|-0-0-0-3-3-------------3-3-0-0-0-------------------------------|
e|-----------3-3-3-1-1-1-----------1-1-1-3-3-1-1-1-0-0-0-3-3-1-1-|

g|---------------------------------------------------------------|
d|---------------------------------------------------------------|
a|-0-0-0-3-3-------------3-3-0-0-0-------------------------------|
e|-----------3-3-3-1-1-1-----------1-1-1-3-3-1-1-1-0-0-0-3-3-1-1-|
Comments