Red Hot Chili Peppers - This Is The Place Chords & Tabs

 

This Is The Place Chords & Tabs

Red Hot Chili Peppers Chords & Tabs

Version: 6 Type: Bass Tab 0 ratings
1 star 2 stars 3 stars 4 stars 5 stars
comments

This Is The Place Bass Tab

intro/verse/chorus (i think)
G-------------------------------------------
D----------10-10----------------10-10-7-7-7-
A-12-12-12-------10-10-10-8-8-8-------------
E-------------------------------------------
[ Tab from: http://www.guitartabs.cc/tabs/r/red_hot_chili_peppers/this_is_the_place_btab_ver_6.html ]
G------------------------------------
D--------7-7---------------5-5-------
A--5-5-5-----8-8-8-3-3-3-------5-5-5-
E------------------------------------

end of song
G--------
D------7-
A--------
E-5-5----

this is my first tab, i think this is the only riff played on the whole song.
Comments