Red Hot Chili Peppers - Theyre Red Hot Chords & Tabs

 

Theyre Red Hot Chords & Tabs

Red Hot Chili Peppers Chords & Tabs

Version: 1 Type: Tab 0 ratings
1 star 2 stars 3 stars 4 stars 5 stars
comments

Theyre Red Hot Tab

Artist:Red Hot Chili Peppers
Song Name:They're Red Hot
Album:Blood Sugar Sex Magik
Track#:17
Tabbed by: The legendary Funk Traveler

e|----0-----------|------3--3---3--3--2--|-2----2--------1--|
b|----1--------4--|------2--2---2--2--1--|-1----1--------0--|
g|----0--------4--|------0--0---0--0--2--|-2----2---0----0--|
D|----2--------4--|------2--2---2--2-----|-0----0---0-------|
A|-3--3----2---2--|-0--------------------|----------X-------|
E|----------------|----------------------|----------3-------|
[ Tab from: http://www.guitartabs.cc/tabs/r/red_hot_chili_peppers/theyre_red_hot_tab.html ]
e|-----0-0-0-0-0-------0-------------|----3--3--3--2--0--0--0-|
b|-----1-1-1-1-1-------1--------4----|----2--2--2--1--1--1--1-|
g|-0---0-0-0-0-0-------0--------4----|----0--0--0--2--2--2--2-|
D|-2---2-2-2-2-2-------2--------4----|----2--2--2-----0--0--0-|
A|-3--------------3----3----2---2----|--0---------------------|
E|-----------------------------------|------------------------|


It's a very very fast song, and will probably take a while to learn to
play, but it's a lot of fun.

If you need another Chili Peppers songs tabbed,e-mail me at:
frusiante@home.com
Thanx

                          ~FUNK TRAVELER~
Comments