Red Hot Chili Peppers - The Zephyr Song Chords & Tabs

 

The Zephyr Song Chords & Tabs

Red Hot Chili Peppers Chords & Tabs

Version: 9 Type: Tab 0 ratings
1 star 2 stars 3 stars 4 stars 5 stars
comments

The Zephyr Song Tab

   
This is my first tab, but Im sure it is 100% correct

Intro:
 
e|--------3-------1-------------------0----------------------0---------------|
B|------1-------0-----0------1-------1------0-3------0-------1---------------|
G|----2-------0------0------2-------2-----0--------0-------2-----------------|
D|------------------2------3----------------------2------3-------------------|
A|---------------------------------------------------------------------------|
E|---------------------------------------------------------------------------|

Verse:
 
e|---------3-1-0--------1-0--------------------------------------------------|
B|------1------------3------3-1------0---3-1-0-1------1--3/5-3-1-0-1---------|
G|----2--2--------0-0-0------------0--0-------------0------------------------|
D|-------------------------------2----------------3--------------------------|
A|--0------------------------------------------------------------------------|
E|---------------------------------------------------------------------------|
 
e|---------3-5-0--------1-0--------------------------------------------------|
B|------1------------3------3--------0---3-1-0-1-----------------------------|
G|----2--2--------0-0-0-------------0-0---------------4-5----4-5-------------|
D|--------------------------------2-----------------3------3-----------------|
A|--0------------------------------------------------------------------------|
E|---------------------------------------------------------------------------|

Chours:
    D     G     A
e|--2-----3-----5------------------------------------------------------------|
B|--3-----3-----5------------------------------------------------------------|
G|--2-----4-----6------------------------------------------------------------|
D|--0-----5-----7------------------------------------------------------------|
A|--0-----5-----7------------------------------------------------------------|
E|--x-----3-----5------------------------------------------------------------|

After Chours:
 
e|---------3-1-0--------1-0--------------------------------------------------|
B|------1------------3------3--------0---3-1-0--------1--3/5-3-1-------------|
G|----2--2--------0-0-0-----------------------------0------------------------|
D|-------------------------------2----------------3--------------------------|
A|--0------------------------------------------------------------------------|
E|---------------------------------------------------------------------------|

Verse

Chours
[ Tab from: http://www.guitartabs.cc/tabs/r/red_hot_chili_peppers/the_zephyr_song_tab_ver_9.html ]
Solo:
e|--12-10-12-12~-12~-10-12---------10-8-10-10~-10~--10-12---------12-10-12---|
B|-------------------------12b-10-------------------------12b-10-------------|
G|---------------------------------------------------------------------------|
D|---------------------------------------------------------------------------|
A|---------------------------------------------------------------------------|
E|---------------------------------------------------------------------------|

e|--12~--10-12---------10-8-10-10~-10-8-10-12--------------------------------|
B|-------------12b-10-------------------------12b-10-------------------------|
G|---------------------------------------------------9-----------------------|
D|---------------------------------------------------------------------------|
A|---------------------------------------------------------------------------|
E|---------------------------------------------------------------------------|

after solo verse:
  Am    G   Em    F
e|-0----3----0----1----------------------------------------------------------|
B|-1----3----0----1----------------------------------------------------------|
G|-2----0----0----2----------------------------------------------------------|
D|-2----0----2----3----------------------------------------------------------|
A|-0----2----2----3----------------------------------------------------------|
E|-x----3----0----1----------------------------------------------------------|

Chours

outro
    D                                                G
e|-----14----14----14-----14----14----14----15----15----17----17|
B|--15----15----15----15-----15----15----15----15----15----15---|
G|--------------------------------------------------------------|	
D|--------------------------------------------------------------| 2 times
A|--------------------------------------------------------------|
E|--------------------------------------------------------------|

    G	                   A		      D
e|--------14-------14-----15--14--------15----15----17----17---|
B|----15-------15-----15---------15--15----15----15----15------|
G|-------------------------------------------------------------|
D|-------------------------------------------------------------| 2 times
A|-------------------------------------------------------------|
E|-------------------------------------------------------------|
		    
e|---17---|
B|---15---|
G|--------|
D|--------|
A|--------|
E|--------|
Comments