Red Hot Chili Peppers - The Zephyr Song Chords & Tabs

 

The Zephyr Song Chords & Tabs

Red Hot Chili Peppers Chords & Tabs

Version: 1 Type: Tab 20 ratings
1 star 2 stars 3 stars 4 stars 5 stars
comments

The Zephyr Song Tab

Artist: Red Hot Chili Peppers
Album : By the Way
Song  : The Zephyr Song

Intro:

E|-----------------------------------------
B|-------8-------6-------0-------1---------
G|-----5-------4-------0-------2-----------
D|--7--------5-------2-------3-------------
A|-----------------------------------------
E|-----------------------------------------

E|-----------------------------------------
B|-----5------3------0------1--------------
G|---5------4------0------2----------------
D|-7------5------2------3------------------
A|-----------------------------------------
E|-----------------------------------------

Verse:


E|-----------------------------------------
B|-----5--8-6-5-------3---6-5-3------------
G|---5--5-----------4---4-------4----------
D|-7--------------5------------------------
A|-----------------------------------------
E|-----------------------------------------
                             s
E|-----------------------------------------
B|-----0---3-1-0---------1--3/5-3----------
G|---0---0-------------2----------5-4------
D|-2-----------------3---------------------
A|-----------------------------------------
E|-----------------------------------------
             s
E|----------5------------------------------
B|-----5--8---5---------3---6-5-3----------
G|---5--5-------------4---4----------------
D|-7----------------5----------------------
A|-----------------------------------------
E|-----------------------------------------

E|-----------------------------------------
B|-----0---1-3-1-------1-----1-------------
G|---0---0-----------2-----2---------------
D|-2---------------3-----3-----------------
A|-----------------------------------------
E|-----------------------------------------

[ Tab from: http://www.guitartabs.cc/tabs/r/red_hot_chili_peppers/the_zephyr_song_tab.html ]
Chours
e-----|-----|------|----------------|-----|--3--|--5-----------------------| 
H--7--|-----|--12--|--14---------7--|-----|--3--|--5-----------------------| 
G--7--|-----|--12--|--14---------7--|-----|--4--|--6-----------------------| 
D--7--|-----|--12--|--14---------7--|-----|--5--|--7-----------------------| 
A--5--|-----|--10--|--12---------5--|-----|--5--|--7-----------------------| 
E-----|-----|------|----------------|-----|--3--|--5-----------------------|

e|--------------------------------------------------------------------| 
B|-10---------------3-------5-------10----------3-------5-------------| 
G|-11---------------4-------6-------11----------4-------6-------------| 
D|-12---------------5-------7-------12----------5-------7-------------| 
A|-12---------------5-------7-------12----------5-------7-------------| 
E|--------------------------------------------------------------------| 




SOLO
e---12-10-12-12--12-10-12-----------------10-8-10-10--10-10-12----------
b---------------------------12^--10-----------------------------12^-10--
G-----------------------------------------------------------------------
D-----------------------------------------------------------------------
A-----------------------------------------------------------------------
E-----------------------------------------------------------------------

e---12-10-12-12--10-12-----------------10-8-10-10-10-8-10---------------
B----------------------12^-----10--------------------------12^-13-12-10--
G-----------------------------------------------------------------------
D-----------------------------------------------------------------------
A-----------------------------------------------------------------------
E-----------------------------------------------------------------------


Comments