Red Hot Chili Peppers - The Zephyr Song Solo Chords & Tabs

 

The Zephyr Song Solo Chords & Tabs

Red Hot Chili Peppers Chords & Tabs

Version: 1 Type: Tab 1 rating
1 star 2 stars 3 stars 4 stars 5 stars
comments

The Zephyr Song Solo Tab

   
Hey evry1,
This is my 1st tab so please email me if its incorrect. 
Also im only a beginner an i hav an acoustic so its a
bit hard for me to do anythin tricky so here it goes-

Bend-b

E---12--10--12--12----12--10--12---------------------------
B--------------------------------------------12b--10--------------
G--------------------------------------------------------------------

E--10--8--10--10---10--10--12-------------------------------
B-----------------------------------------12b--10-----------------
G---------------------------------------------------------------------
[ Tab from: http://www.guitartabs.cc/tabs/r/red_hot_chili_peppers/the_zephyr_song_solo_tab.html ]
E---12--10--12--12---10--12---------------------------------
B--------------------------------------------12b--10--------------
G--------------------------------------------------------------------

E--10--8--10--10--10--8--10--12----------------------------
B-------------------------------------------12b--10---------------
G-------------------------------------------------------9------------

Although im only a beginner, im pretty certain that this
is a correct way of playin Johns solo but i am aware 
there is other ways. If u want me to correct this at all
tell me @ qwerty_313@hotmail.com
Comments