Red Hot Chili Peppers - Tell Me Baby Chords & Tabs

 

Tell Me Baby Chords & Tabs

Red Hot Chili Peppers Chords & Tabs

Version: 2 Type: Tab 2 ratings
1 star 2 stars 3 stars 4 stars 5 stars
comments

Tell Me Baby Tab

   
INTRO:
e|-------------------|----------------1-|-------------------|--------------|
B|--1----1----0--1---|---1----1----0--3-|---1----1---0--1---|--1----1----0-|
G|2----0------0----2-|-2----0------0--2-|-2----0-----0----2-|2----0------0-|
D|3-----------0----2-|-3-----------0--0-|-3----------0----2-|3-----------0-|
A|-----3---------0---|------3-----------|------3--------0---|-----3------x-|
E|----------3--------|-----------3------|-----------3-------|------------3-|

VERSE:
e|-3--5----3--5--|     e|-3--5----8-7-5-3-5-|
B|-----5-------55|     B|-----5-------------|
G|---------------| X3  G|-------------------|Play all of this 3 times 
D|---------------|     D|-------------------|and then play what is below.
A|---------------|     A|-------------------|
E|---------------|     E|-------------------|

e|-12-12-12-12-12-12-12-|     e|-15-15-15-15-15-15-15-|
B|-12-12-12-12-12-12-12-|     B|-15-15-15-15-15-15-15-|
G|-12-12-12-12-12-12-12-| X3  G|-14-14-14-14-14-14-14-|
D|----------------------|     D|----------------------|
A|----------------------|     A|----------------------|
E|----------------------|     E|----------------------|

e|-3--5----3--5--|     e|-3--5----8-7-5-3-5-|
B|-----5-------55|     B|-----5-------------|
G|---------------| X3  G|-------------------| 
D|---------------|     D|-------------------|
A|---------------|     A|-------------------|
E|---------------|     E|-------------------|

CHORUS:

   F F  C C  G G  Am Am F F  C C  G G G G
e|-1-1--0-0--3-3--0-0-|-1-1--0-0--3-3-3-3-|
B|-1-1--1-1--3-3--1-1-|-1-1--1-1--3-3-3-3-|
G|-2-2--0-0--0-0--2-2-|-2-2--0-0--0-0-0-0-|
D|-3-3--2-2--0-0--2-2-|-3-3--2-2--0-0-0-0-| X4
A|-3-3--3-3--2-2--0-0-|-3-3--3-3--2-2-2-2-|
E|-1-1-------3-3------|-1-1-------3-3-3-3-|

[ Tab from: http://www.guitartabs.cc/tabs/r/red_hot_chili_peppers/tell_me_baby_tab_ver_2.html ]
VERSE:
e|-3--5----3--5--|     e|-3--5----8-7-5-3-5-|
B|-----5-------55|     B|-----5-------------|
G|---------------| X3  G|-------------------|Play all of this 3 times 
D|---------------|     D|-------------------|and then play what is below.
A|---------------|     A|-------------------|
E|---------------|     E|-------------------|

e|-12-12-12-12-12-12-12-|     e|-15-15-15-15-15-15-15-|
B|-12-12-12-12-12-12-12-|     B|-15-15-15-15-15-15-15-|
G|-12-12-12-12-12-12-12-| X3  G|-14-14-14-14-14-14-14-|
D|----------------------|     D|----------------------|
A|----------------------|     A|----------------------|
E|----------------------|     E|----------------------|

e|-3--5----3--5--|     e|-3--5----8-7-5-3-5-|
B|-----5-------55|     B|-----5-------------|
G|---------------| X3  G|-------------------| 
D|---------------|     D|-------------------|
A|---------------|     A|-------------------|
E|---------------|     E|-------------------|

CHORUS:

   F F  C C  G G  Am Am F F  C C  G G G G
e|-1-1--0-0--3-3--0-0-|-1-1--0-0--3-3-3-3-|
B|-1-1--1-1--3-3--1-1-|-1-1--1-1--3-3-3-3-|
G|-2-2--0-0--0-0--2-2-|-2-2--0-0--0-0-0-0-|
D|-3-3--2-2--0-0--2-2-|-3-3--2-2--0-0-0-0-| X4
A|-3-3--3-3--2-2--0-0-|-3-3--3-3--2-2-2-2-|
E|-1-1-------3-3------|-1-1-------3-3-3-3-|

The solo should be here but i havent got it.
Ill let you know when i get it.

CHORUS:

   F F  C C  G G  Am Am F F  C C  G G G G
e|-1-1--0-0--3-3--0-0-|-1-1--0-0--3-3-3-3-|
B|-1-1--1-1--3-3--1-1-|-1-1--1-1--3-3-3-3-|
G|-2-2--0-0--0-0--2-2-|-2-2--0-0--0-0-0-0-|
D|-3-3--2-2--0-0--2-2-|-3-3--2-2--0-0-0-0-| X4
A|-3-3--3-3--2-2--0-0-|-3-3--3-3--2-2-2-2-|
E|-1-1-------3-3------|-1-1-------3-3-3-3-|

And thats it. Enjoy!

Comments