Red Hot Chili Peppers - Tell Me Baby Chords & Tabs

 

Red Hot Chili Peppers Chords & Tabs

Version: 1 Type: Tab 3 ratings
1 star 2 stars 3 stars 4 stars 5 stars
comments

Tell Me Baby Tab

   
Red Hot Chili Peppers - Tell Me Baby
Album: Stadium Arcadium - Mars
Tuning: Standard


Intro - Finger Picked

 F	  C	  G	  Am	  F	  C	  G	  Dm		
|----------------|---------------|---------------|-----------1-------|
|----1-------1---|----0----1-----|-----1-------1-|------0----3-------|
|-2-------0------|-0----------2--|--2-------0----|---0-------2-------|
|-3--------------|---------------|--3------------|-------------------|
|---------3------|-2-------0-----|----------3----|---2---------------|
|----------------|---------------|---------------|-------------------|

 F	  C	  G	  Am	  F	  C	  G
|----------------|---------------|---------------|---3---------------|
|----1-------1---|----0----1-----|-----1-------1-|---0---------------|
|-2-------0------|-0----------2--|--2-------0----|---0---------------|
|-3--------------|---------------|--3------------|---0---------------|
|---------3------|-2-------0-----|----------3----|---2---------------|
|----------------|---------------|---------------|---3---------------|

Rhythm Figure 1
[ Tab from: http://www.guitartabs.cc/tabs/r/red_hot_chili_peppers/tell_me_baby_tab.html ]
			     3x
||---------------------------||
||---------------------------||
||-12--14------12--14--------||
||---------14----------14----||
||---------------------------||
||---------------------------||


|-----------------------------|
|-------------13p12p10-10-----|
|-12--14-------------------12-|
|---------14------------------|
|-----------------------------|
|-----------------------------|


Rhythm Figure 2

   Am		     	    		     3x
||-12--------12--------12---------12---12----||
||-13--------13--------13---------13---13----||
||-14--------14--------14---------14---14----||
||-------------------------------------------||
||-------------------------------------------||
||-------------------------------------------||
||-------------------------------------------||


  Am	       	      Dm
|-12--------12--------12-12-12-12-12-12-12-12-|
|-13--------13--------14-14-14-14-14-14-14-14-|
|-14--------14--------13-13-13-13-13-13-13-13-|
|---------------------------------------------|
|---------------------------------------------|
|---------------------------------------------|
|---------------------------------------------|
								

Intro (x1)
Rhythm Figure 1 (x3)
Rhythm Figure 2 (X1)
Rhythm Figure 1 (x1)
Chorus (x2)
Rhythm Figure 1 (x3)
Rhythm Figure 2 (x1)
Rhythm Figure 1 (x1)
Chorus (x2)
Rhythm Figure 1 (x2)
Chorus (x2)
 



Comments