Red Hot Chili Peppers - Teenager In Love Chords & Tabs

 

Teenager In Love Chords & Tabs

Red Hot Chili Peppers Chords & Tabs

Version: 1 Type: Bass Tab 0 ratings
1 star 2 stars 3 stars 4 stars 5 stars
comments

Teenager In Love Bass Tab

Song: Teenager In Love
Artist: Red Hot Chili Peppers (*Dion and the Belmonts)
Album: "By The Way" Single, B-Side
Tabbed By: Zac (awbrewer@telusplanet.net)

Standard Tuning

Intro

-----1-4-------6----------
---3-------6-4---4-66-8-10
-4-------4----------------
--------------------------

Verse
-----3---------------------3-------6----------
---3-----6-4---66-8-10---3-----6-4---4-66-8-10
-4-----4-----4---------4-----3----------------
----------------------------------------------

Chorus 1 and 4
[ Tab from: http://www.guitartabs.cc/tabs/r/red_hot_chili_peppers/teenager_in_love_btab.html ]
Each Night I ask...
                             -rest-
-----3----------------------       ----------
---3------6-4---4-66-8-10-11       ----------
-4------4-----4-------------       -----1-3-4 <-- Back To Verse
----------------------------       -4-4------

Chorus 2 and 3
                             -rest-          I cried... Back to verse
-----3----------------------       --------  ---------------3-5
---3------6-4---4-66-8-10-11       -----2-3  -4--6-6-----66----
-4------4-----4-------------       -6-6----  --4--6------------
----------------------------       --------  ------------------

End With Chorus Figure on High C#.  Good Luck and Enjoy!
Comments