Red Hot Chili Peppers - Tear Chords & Tabs

 

Tear Chords & Tabs

Red Hot Chili Peppers Chords & Tabs

Version: 4 Type: Tab 0 ratings
1 star 2 stars 3 stars 4 stars 5 stars
comments

Tear Tab

   
Tear, Off the new red hot chilli peppers album, 'By the way'


The verse (converted from piano)

|---0---0---0-----|---0---1---0-----|
|---1---0---1-----|---0---0---0-----|
|-0---0---0-------|-0---0---0-------|
|-----------------|-----------------|
|-----------------|-----------------|
|-----------------|-----------------|

Chorus
[ Tab from: http://www.guitartabs.cc/tabs/r/red_hot_chili_peppers/tear_tab_ver_4.html ]
    Am             C            F           D
|-0-0-00-0--||-----------||-1-1-11-1--||-2-2-22-2--|
|-1-1-11-1--||-1-1-11-1--||-1-1-11-1--||-3-3-33-3--|
|-0-0-00-0--||-0-0-00-0--||-2-2-22-2--||-2-2-22-2--|
|-2-2-22-2--||-2-2-22-2--||-3-3-33-3--||-----------|
|-----------||-3-3-33-3--||-3-3-33-3--||-----------|
|-----------||-----------||-1-1-11-1--||-----------|


Quiet solo

Not quite sure yet, but it uses B and E string frets

0,1,3, on B
1,3,5, On E

Very fast solo

E) |555555555555555|777777777777777|55555555555555|77777777778888| x2

The trumpet/trombone whateva solo can be changes to guitar

|-12-12-14-12-|-12-14-12-14-|-12-14-12-12-|14~------|x2


End Song on Am chord used in chorus.

Any problems send to robspacey@hotmail.com







Comments