Red Hot Chili Peppers - Tear Chords & Tabs

 

Tear Chords & Tabs

Red Hot Chili Peppers Chords & Tabs

Version: 3 Type: Tab 0 ratings
1 star 2 stars 3 stars 4 stars 5 stars
comments

Tear Tab

#-----------------------------------------------------------------------------#
#-- File created with Instab - http://www.pconline.com/~smcarey/instab.html --#
#-----------------------------------------------------------------------------#

Author/Artist: red hot chili peppers 
Title: tear
Transcribed by: Saverain
Email: saverain@hotmail.com

This is what it sounds like to me and if you don't
 like it E-mail me
you'll have to find the lyrics somewhere else sorry.
 I are not to good words
v strum down
^ strum up
b bend   r release bend    h hammer on
m mute   / slide up   \ slide down  
s strum down slowly

-|-----|-----------------------|----------------------------------------------
-|-----|-----------------------|-----6-5-3-----6-5-1-----5-3-1-5-3-1-5-3-1-5--
-|-5---|---5----4----2---------|---5---------4---------2----------------------
-|-5---|---5----5----2---------|---5---------5---------2----------------------
-|-----|-3---------0-----------|-3-------------------0------------------------
-|-----|------3----------------|-----------3----------------------------------
         v ^  v ^  ^ ^          piano maybe                                   
[ Tab from: http://www.guitartabs.cc/tabs/r/red_hot_chili_peppers/tear_tab_ver_3.html ]
---------------------------------------------|------|--------------------|----
-3-1-5-3-1-----6-5-3-----6-5-1-----5-3-1-5---|------|-----10-8-5---------|----
-------------5---------4---------2-----------|------|---5-----------5-5--|----
-------------5---------5---------2-----------|------|---5-----------5-5--|----
-----------3-------------------0-------------|------|-3----------3-------|----
---------------------3-----------------------|------|--------------------|----
                                               intro                 m m      

-|---------|------------------------------------------------------------------
-|-5--5----|------------------------------------------------------------------
-|-5--4--2-|----9-10-12-10-9-----------------------------9-----------9--------
-|-5--5--2-|-10--------------10-----9-10-12-10-9----7-10---7h9h10-10----------
-|-3--x--0-|---------------------10--------------10---------------------------
-|----3----|------------------------------------------------------------------
  chorus chord first solo                                                     

------------------------------------------------------------------------------
------------------------------------------------------------------------------
-----------9-----------9-----------9------------9-10-12-10-9-7----------------
-7h9h10-10---7h9h10-10---7h9h10-10---7h9h10--10--------------------9-10-12----
----------------------------------------------------------------10------------
------------------------------------------------------------------------------
                                                                              

--------------------------------------------------------|---------------------
--------------------------------------------------------|---------------------
-10-------------9-----------9-----------9------------9--|---------------------
----10-9-7-7-10---7h9h10-10---7h9h10-10---7h9h10-----10-|---------------------
--------------------------------------------------10----|---------------------
--------------------------------------------------------|---------------------
                                                       m                      

Comments