Red Hot Chili Peppers - Tear Chords & Tabs

 

Tear Chords & Tabs

Red Hot Chili Peppers Chords & Tabs

Version: 1 Type: Bass Tab 0 ratings
1 star 2 stars 3 stars 4 stars 5 stars
comments

Tear Bass Tab

Tear
Red Hot Chili Peppers
tabbed by senorfunk@hotmail.com

1st Verse        x10   (8th  time)

G-------------------|--------------------------------
D-------------------|-------------------/7--5--------
A-3-3---------------|-3-3----------------------7--5--
E-------3-3---5-5---|-------3-3---5-5----------------

Chorus (variates each time)

G-------17--------16--------------------------------------
D--------------------16-----------14----------------------
A-15~-----15--14~-------14--12~------12--10~-12/14-12-10--
E---------------------------------------------------------

G--------------------------------------
D------------9--------------5---7--9---
A-8~----7~-----7---5--7--8-------------
E--------------------------------------

G-------17--------16----------------------------
D--------------------16-----------14------------
A-15~-----15--14~-------14--12~------12--10~----
E-----------------------------------------------
[ Tab from: http://www.guitartabs.cc/tabs/r/red_hot_chili_peppers/tear_btab.html ]
G------------------------------------------------14~--------------
D----------------9----------------------------14------------------
A-8~---10-8-7~-----7---5--7--8--10~---8-10-12-----------8-10-12~--
E-----------------------------------------------------------------

Verses (Plus variations)		   (ends with)

G---------------------------------------   -------------
D------2-3-5----------------------------   -------------
A-3-3--------------2-3-5----------------   -3---3-3-5---
E-------------3-3---------5-5----5-55\--   -------------

Bridge

G--------------------------------------------------17-------------------------------
D----------15------------------------------------15--15-----------------------------
A------15-----15-------------------------------15------15---------------------------
E-13~------------13-12~---12-/17-15-13-12-13~------------13~~----12~--/17-15-13-12--

G-----------------17-----------------------------------------------------------------
D--------------15--------------------------------------------------------------------
A-------15-15--------15-----------------------------15-15-15-15~---------------------
E-13~-------------------13-12~--12-/17-15-13-12-13~----------------13-15-12~--13--15-


Comments