Red Hot Chili Peppers - Subway To Venus Chords & Tabs

 

Subway To Venus Chords & Tabs

Red Hot Chili Peppers Chords & Tabs

Version: 2 Type: Tab 0 ratings
1 star 2 stars 3 stars 4 stars 5 stars
comments

Subway To Venus Tab

Here's something like how to play the guitar line to this great song. This is by no
means technically exact; fuck trying to accurately tab all the mutes in this but this
should give you the basic chordal structure:

INTRO & VERSE

-x--9-9--7-7--10-10--|-
-x--9-9--7-7--10-10--|-
-7--7-7--7-7--9--9---|-
-6--6-6--6-6--0--0---|-
-7--7-7--7-7--x--x---|-
-0--0-0--0-0--x--x---|-   You could try alternating the lower 
                          sus4 with the octave or trilling on the high e 
                          imitating the trumpet
[ Tab from: http://www.guitartabs.cc/tabs/r/red_hot_chili_peppers/subway_to_venus_tab_ver_2.html ]
-x--9-9--7-7--3-3--|----------------|-
-x--9-9--7-7--3-3--|----------------|-
-7--7-7--7-7--2-2--|--9-------7-----|- < Played as triplets in unison
-6--6-6--6-6--0-0--|---6-7-8-9-9-8-7|-   with the bass
-7--7-7--7-7--x-x--|-7--------------|- 
-0--0-0--0-0--x-x--|----------------|- (at the end of the verse)

CHORUS

-10-10-----5---5--------------------------------|
-9--9---5h7-5h7---9-7v--------------------------|
-9--9-------------9-7v--10-10---------12-12-12--|
------------------------10-10--10-10--12-12-12--|
------------------------8--8---10-10--10-10-10--|
------------------------8--8---8--8---10-10-10--|

Not a clue about the solo or the rest of the song which is a bit worrying as we're
supposedly covering it... but i'm sure you can just improv it.

From the man at the concern, Party time! excelent! woo woo woo! shneaup phneauffp!
Comments