Red Hot Chili Peppers - Subway To Venus Chords & Tabs

 

Subway To Venus Chords & Tabs

Red Hot Chili Peppers Chords & Tabs

Version: 1 Type: Bass Tab 1 rating
1 star 2 stars 3 stars 4 stars 5 stars
comments

Subway To Venus Bass Tab

Subway to Venus - Bass Tab
By the Red Hot Chili Peppers
>From the album Mother's Milk
Tabbed by Otto Brandt (osmo_brand@hotmail.com)
		
Intro 
G|----|----|----|----|
D|----|----|----|----|
A|----|----|----|----|
E|-12-|-12-|-12-|-12-|

Bass solo
G|--16-15-14---14---------|--------------------------|
D|-----------17--17-14----|--17-14-------------------|
A|---------------------17-|--------17-14-17-14-------|
E|------------------------|--------------------17-15-|

Main Riff under verse			3 times then 2 times
G|-------------|------------7----|-------------|------------|
D|----6-7-8-9--|----6-7-8-9---9--|-------------|------------|
A|--7----------|--7--------------|---------5-3-|-5-5-5-5----|
E|-------------|-----------------|-5-5-5-0-----|------------|
[ Tab from: http://www.guitartabs.cc/tabs/r/red_hot_chili_peppers/subway_to_venus_btab.html ]
Interlude after playing the verse for the first time
G|---------7---------|
D|-6-7-8-9--9-8-7----|
A|-------------------|
E|-------------------|

Chorus: Space is King...
G|------------|-----------|------------|---------|
D|---0-2-0----|-0-2-0-----|---0-2-2----|-3-3-2-2-|
A|-2----------|-------2---|-2----------|---------|
E|------------|-----------|------------|---------|

Interlude after II chorus
G|----------------|----------------|----------------|
D|-5--5--5-5-5-5--|-5--5--5-5-5-5--|-5--5--5-5-5-5--|
A|----------------|----------------|----------------|
E|----------------|----------------|----------------|

Guitar solo 
G|------------------|
D|------------------|
A|-7---------4-5-6--|
E|---4-5-6-7--------|

Ending
G|-------------------|
D|--3-3-----5-5------|
A|------3-3----------|
E|-------------------|

If you have any comments, corrections or additions, please mail me.


Comments