Red Hot Chili Peppers - Strip My Mind Chords & Tabs

 

Strip My Mind Chords & Tabs

Red Hot Chili Peppers Chords & Tabs

Version: 2 Type: Bass Tab

Strip My Mind Bass Tab

   
Band:  Red Hot Chili Peppers
Title: Strip My Mind
Album: Stadium Arcadium
Tabbed by: DanCohen masterofthebass@gmail.com

----------------------------------------------------------------------------

awsome song from the new album...
this is really only the chord outline, but listen mainly for the the rhythms

----------------------------------------------------------------------------
Song is in C if you couldn't figure that out... So all fills that he does use the notes 
C major based on the chord he's on.

Intro
  Am      Em       Fmaj    Cmaj     Dm      Am       Cmaj    G7
  * + * + * + * +  * + * + * + * +  * + * + * + * +  * + * + * + * +
G|----------------|----------------|----------------|----------------|
D|----------------|----------------|----------------|----------------|
A|0---------------|--------3-------|5---------------|3---------------|
E|--------0-------|1---------------|--------5-------|--------3-------|
[ Tab from: http://www.guitartabs.cc/tabs/r/red_hot_chili_peppers/strip_my_mind_btab_ver_2.html ]
  Am      Em       Fmaj    Cmaj     Dm      Am       Cmaj    G7
  * + * + * + * +  * + * + * + * +  * + * + * + * +  * + * + * + * +
G|----------------|----------------|----------------|----------------|
D|----------------|----------------|----------------|----------------|
A|0---------------|--------3-----3/|5---57-5--------|3----53---------|
E|------3-0-------|1---------------|--------5-------|--------3-------|

  Am      Em       Fmaj    Cmaj     Dm      Am       Cmaj    G7
  * + * + * + * +  * + * + * + * +  * + * + * + * +  * + * + * + * +
G|----------------|----------------|----------------|----------------|
D|----------------|----------------|----------------|----------------|
A|0---------------|--------3-----3/|5---57-5--------|3-7-5-3---------|
E|------3-0-------|1---------------|--------5-------|--------3-------|

Pre-Chorus
  Fmaj                    Cmaj                    Fmaj
  *  +  *  +  *  +  *  +  *  +  *  +  *  +  *  +  *  +  *  +  *  +  *  +
G|---------10-14-12-10---|-----------------------|--------10-14-12-10----|
D|------10-------------12|10----------10-12-10---|------10---------------|
A|8----------------------|----------10-------10--|8----------------------|
E|-----------------------|-----------------------|-----------------------|

Chorus
  Am          G7       Fmaj
  *  +  *  +  *  +  *  +  *  +  *  +  *  +  *  +
G|-----------------------|-----------------------|
D|-----------------------|-----------------------|
A|0----------------------|-----------------------|    x3
E|------------3--3-----1-|------1---1-1--1-----1-|

Verse

Pre-Chorus

Chorus

Guitar Solo (Same as Verse)

Verse

Pre-Chorus

Chorus