Red Hot Chili Peppers - Soul To Squeeze Chords & Tabs

 

Soul To Squeeze Chords & Tabs

Red Hot Chili Peppers Chords & Tabs

Version: 7 Type: Bass Tab 0 ratings
1 star 2 stars 3 stars 4 stars 5 stars
comments

Soul To Squeeze Bass Tab

Soul to Squeeze
Red Hot Chili Peppers
Tabbed by: Paul Currier
Soul to Squeeze
Red Hot Chili Peppers
Tabbed by: Paul Currier
Tuning: Standard
H = Hammer On
/-\ = Slide
SP = Slap
X = Mute/Harmonic
r = Rest

G|-------------------------|--1214-----------------14-------14h16--|14-----------------------|
D|------------------------ |---------------14H16------16-----------|------rest 3 beats-------|
A|--rest for 2 measures----|---------------------------------------|-------------------------|
E|-------------------------|---------------------------------------|-------------------------|

G|------------------|-----------------|-----------------|------------------------------------|
D|------------------|-----------------|-----------------|------------------------------------|
A|--0-0-0-0-0-0-0-0-|-0-0-0-0-0-0-0-0-|-0-0-0-0-0-0-0-0-|-0-0-0-0-0--------------------------|
E|------------------|-----------------|-----------------|-----------5-/-10-\-3---------------|

G|-------------------|-----------|--------------------|--------------------------------------|
D|-------------------|-----------|--------------------|--------------------------------------|
A|-----------3r3-2-3-|-5-7-8-----|--5r5----5-8----8---|--------------------------------------|
E|--1r1-3/5----------|---------6-|-------5------6---8-|r3-r6-r-5\---------------------------|

G|-------------------|----------------|--------------------|---------------------------------|
D|-------------------|----------8-8-8-|--------------------|---------------------------------|
A|-----------3r3-2-3-|-5-7-8----------|--5r5----5-8----8---|---------------------------------|
E|--1r1-3/5----------|---------6------|-------5------6---8-|r3-r6-r-5\----------------------|

G|-------------------|-----------|--------------------|--------------------------------------|
D|-------------------|-----------|--------------------|--------------------------------------|
A|-----------3r3-2-3-|-5-7-8-----|--5r5----5-8----8---|--------------------------------------|
E|--1r1-3/5----------|---------6-|-------5------6---8-|r3-r6-r-5\---------------------------|

G|-------------------|-------------|--------------------|------------------------------------|
D|-------------------|-----------8-|--------------------|------------3-----------------------|
A|-----------3r3-2-3-|-5-7-8-------|--5r5----5-8----8---|-10-----3/5---5-3-------------------|
E|--1r1-3/5----------|---------6---|-------5------6---8-|---8-6-----------6-----------------|

G|-------------------|----------------|--------------------|---------------------------------|
D|-------------------|----------8-8-8-|--------------------|---------------------------------|
A|-----------3r3-2-3-|-5-7-8----------|--5r5----5-8----8---|---------------------------------|
E|--1r1-3/5----------|---------6------|-------5------6---8-|r3-r6-r-5\----------------------|

G|-------------------|-----------|--------------------|--------------------------------------|
D|-------------------|-----------|--------------------|--------------------------------------|
A|-----------3r3-2-3-|-5-7-8-----|--5r5----5-8----8---|--------------------------------------|
E|--1r1-3/5----------|---------6-|-------5------6---8-|r3-r6-r-5\---------------------------|

G|--------------|-------------------|-------------------|------------------------------------|
D|-------7-8-10-|------7-7h7h7------|-------------------|------------------------------------|
A|--8-----------|--------------8/10-|-5-5-5-5-5-5-5-7-8-|------------------------------------|
E|--------------|-8-----------------|-------------------|-5-5-5-6----------------------------|

G|-------------------|-----------|--------------------|--------------------------------------|
D|-------------------|-----------|--------------------|--------------------------------------|
A|-----------3r3-2-3-|-5-7-8-----|--5r5----5-8----8---|--------------------------------------|
E|--1r1-3/5----------|---------6-|-------5------6---8-|r3-r6-r-5\---------------------------|

G|-------------------|-----------|--------------------|--------------------------------------|
D|-------------------|-----------|--------------------|--------------------------------------|
A|-----------3r3-2-3-|-5-7-8-----|--5r5----5-8----8---|-10----------8------------------------|
E|--1r1-3/5----------|---------6-|-------5------6---8-|----8-6-8/10---10-8-6-----------------|
[ Tab from: http://www.guitartabs.cc/tabs/r/red_hot_chili_peppers/soul_to_squeeze_btab_ver_7.html ]
G|--------------|--------------|-----------|-------------------------------------------------|
D|-------7-8-10-|------7-------|-----------|-------------------------------------------------|
A|--8-----------|---------8/10-|-5-5-5-7/8-|----------------10-9-----------------------------|
E|--------------|-8------------|-----------|-6--6--6--8/10-----------------------------------|

G|--------------|-------------------|-------------------|------------------------------------|
D|-------7-8-10-|------7-7h7h7------|-------------------|------------------------------------|
A|--8-----------|--------------8/10-|-5-5-5-5-5-5-5-7-8-|------------------------------------|
E|--------------|-8-----------------|-------------------|-5-5-5-6-6-6\-----------------------|

G|-------------------|----------------|--------------------|---------------------------------|
D|-------------------|----------8-8-8-|--------------------|---------------------------------|
A|-----------3r3-2-3-|-5-7-8----------|--5r5----5-8----8---|---------------------------------|
E|--1r1-3/5----------|---------6------|-------5------6---8-|r3-r6-r-5\----------------------|


G|-------------------|-----------|--------------------|--------------------------------------|
D|-------------------|-----------|--------------------|--------------------------------------|
A|-----------3r3-2-3-|-5-7-8-----|--5r5----5-8----8---|--------------------------------------|
E|--1r1-3/5----------|---------6-|-------5------6---8-|8-8-8--------------------------------|

      p                                  p
G|----7---10/12-|-----5-------5-----|----7---10/12-|-----------------------------------------|
D|--s-----8/10--|-5h7---x-5h7---7---|--s-----8/10--|-7-7-7-8-8/------------------------------|
A|--5---r-------|-----------------3-|--5---r-------|-----------------------------------------|
E|--------------|-------------------|--------------|-----------------------------------------|

G|-------------------|-----------|--------------------|--------------------------------------|
D|-------------------|-----------|--------------------|--------------------------------------|
A|-----------3r3-2-3-|-5-7-8-----|--5r5----5-8----8---|--------------------------------------|
E|--1r1-3/5----------|---------6-|-------5------6---8-|r3-r6-r-5\---------------------------|

G|-------------------|-------------|--------------------|------------------------------------|
D|-------------------|-----------8-|--------------------|------------3-----------------------|
A|-----------3r3-2-3-|-5-7-8-------|--5r5----5-8----8---|-10-----3/5---5-3-------------------|
E|--1r1-3/5----------|---------6---|-------5------6---8-|---8-6-----------6-----------------|

G|-------------------|-------------|--------------------|------------------------------------|
D|-------------------|-----------8-|--------------------|------------------------------------|
A|-----------3r3-2-3-|-5-7-8-------|--5r5----5-8----8---|------------------------------------|
E|--1r1-3/5----------|---------6---|-------5------6---8-|-r3-r6-rx-5-------------------------|

G|-------------------|-----------|--------------------|--------------------------------------|
D|-------------------|-----------|--------------------|--------------------------------------|
A|-----------3r3-2-3-|-5-7-8-----|--5r5----5-8----8---|--------------------------------------|
E|--1r1-3/5----------|---------6-|-------5------6---8-|-8-8-3-6/-----------------------------|

G|--------------|-------------------|-----------|--------------------------------------------|
D|-------7-8-10-|------7-7h8h7------|-----------|--------------------------------------------|
A|--8-----------|--------------8/10-|-5-5-5-7/8-|------------10-9----------------------------|
E|--------------|-8-----------------|-----------|-6-6-6-8/10---------------------------------|

G|------------------10-12-10-|-------------------------|---------------|---------------------|
D|-------7---8---10----------|-----------7-8-10-8-7----|---------------|---------------------|
A|--8------8---8-------------|----7-8-10------------10-|-5-5-5-5-5-7-8-|---------------------|
E|---------------------------|-8-----------------------|---------------|-5-5-5-6-6-----------|

G|------------------10-12-10-|-------------------------|-------------|-----------------------|
D|-------7---8---10----------|-----------7-8-10-8-7----|-----------7-|-----------------------|
A|--8------8---8-------------|----7-8-10------------10-|-5-5-5-7-8---|------------10----9----|
E|---------------------------|-8-----------------------|-------------|-6-6-6-8-10----10------|

G|---------------10-12-10----|-------------------------|-----------|------------|------------|
D|-------7-8-r10----------10-|---10-12-10-8-10-8-7-8-7-|-----------|------------|------------|
A|--8------------------------|-------------------------|-5-5-5-7/8-|------------|------------|
E|---------------------------|-8-----------------------|-----------|-5-5-5-6-r6-|-1----------|
Comments