Red Hot Chili Peppers - Soul To Squeeze Chords & Tabs

 

Soul To Squeeze Chords & Tabs

Red Hot Chili Peppers Chords & Tabs

Version: 4 Type: Bass Tab 0 ratings
1 star 2 stars 3 stars 4 stars 5 stars
comments

Soul To Squeeze Bass Tab

Artist: Red Hot Chili Peppers
Song Title: Soul To Squeeze
Tabbed by: Rodrigo Villanueva Delgado.

Intro: (guitar begans alone and 0:7 seconds after the bass)

G-/14-----14--14h16------------------------------------------------------------|
D----14h16--16-----------------------------------------------------------------|
A------------------------------------------------------------------------------|
E-------------------------5-5-5-5-5-5-5-5-5-5-5-5-5-5-5-5-5-5------------------|

Verse: (6x)

G---------------------3-3-3----------------------------------------------------|
D---------------0-2-3----------------------------------------------------------|
A--------3-3-2-3-----1-------5-5-5-7-------------------------------------------|
E-1-1-3-5-----------------------6---6-6-8-8-3-6--------------------------------|

Chorus: (2x)
[ Tab from: http://www.guitartabs.cc/tabs/r/red_hot_chili_peppers/soul_to_squeeze_btab_ver_4.html ]
G------------------------------------------------------------------------------|
D--7-8-10-----7h8h7------------------------------------------------------------|
A-8---------------8-10-5-5-5-5-7-8----------10-9-------------------------------|
E-------8-8-8---------------------6-6-6-6/8---8--------------------------------|

Verse: (2x)
Chorus: (2x)

Solo: (repeat 2 times except the "5-6" on "E" part do this on the second part)

G--------------5----5---------------17----5------------------------------------|
D-------10--5h7--5h7--5h7h5---------17-5h7-------------------------------------|
A-5-5-5/10-----------------7--5-5-5/15-----------------------------------------|
E-------------------------------------------5-6--------------------------------|

Verse: (?)
Chorus : 1(x)
Chorus Variation: (?)

G-------10h12------------------------------------------------------------------|
D--7-8-10----------7-8-10-8-7--------------------------------------------------|
A-8-8-8------7-8-10----------10-5-5-5-5-7-8---------10-9-----------------------|
E-------------8----------------------------6-6-6-6/8--8--1---------------------|
Comments