Red Hot Chili Peppers - So Much I Chords & Tabs

 

So Much I Chords & Tabs

Red Hot Chili Peppers Chords & Tabs

Version: 2 Type: Bass Tab

So Much I Bass Tab

   
So Much I Bass Tab by Red Hot Chili Peppers, www.Ultimate-Guitar.Com

============================================================================

Here's a basic tab of So Much I by Chili Peppers.  I could have tabbed the whole thing note
for note, but it was too much work, so I only tabbed the main riffs in each section. I counted
out the beats (1+2+3+4+)in each measure underneath each section.  If you want to figure 
all the variations/fills and stuff, go ahead, I just
didn't feel like tabbing them.

----------------------------------------------------------------------------
			     So Much I - Red Hot Chili Peppers
----------------------------------------------------------------------------

Tabbed By : sidetracked
e-mail: thekenny220@hotmail.com

----------------------------------------------------------------------------
Tuning:EADG
----------------------------------------------------------------------------

| /  slide up
| ~  let ring

----------------------------------------------------------------------------

verse:
 G|--2-------2-----|
 D|-4--2----4--2---|
 A|---4-240---4-24-|
 E|2-------2------0|
  1+2+3+4+1+2+3+4+
[ Tab from: http://www.guitartabs.cc/tabs/r/red_hot_chili_peppers/so_much_i_btab_ver_2.html ]
p--------------------|rechorus ("a-ah a-ah a-ah a-a-a-ah ah!"):
 G|------------------|
 D|------------------|
 A|00000000-4444444|
 E|----------------|
   1+2+3+4+1+2+3+4+

chorus 1:
 G|--6--6-6--4--4-4--2--2-2----21----6--6-6--4--4-4----------------|
 D|44-44-4-22-22-2-00-00-0---2---4244-44-4-22-22-2-----------------|
 A|------------------------00-0--------------------2222222222222222|some
 E|----------------------------------------------------------------|variable
   1+2+3+4+1+2+3+4+1+2+3+4+1+2+3+4+1+2+3+4+1+2+3+4+1+2+3+4+1+2+3+4+

chorus 2:
 G|--------------------------------|
 D|---4-24--------------0-2-4/6-64-|
 A|--------5-42024-22-4------------|
 E|22------------------------------|last 2 measures variable
   1+2+3+4+1+2+3+4+1+2+3+4+1+2+3+4+

outro:
 G|--------------------------------|
 D|--------------------------------|
 A|0~------------------------------|
 E|--------0~------2~--------------|beats slow down
   1+2+3+4+1+2+3+4+1+2+3+4+1+2+3+4+

----------------------------------------------------------------------------

--verse      8x
--prechorus  1x
--verse      3x
--prechorus  1x
--chorus 1   2x
--chorus 2   4x
--verse      5x
--prechorus  1x
--chorus 1   2x
--chorus 2   8x
--outro      1x

============================================================================