Red Hot Chili Peppers - Snow (hey Oh) Chords & Tabs

 

Snow (hey Oh) Chords & Tabs

Red Hot Chili Peppers Chords & Tabs

Version: 6 Type: Tab

Snow (hey Oh) Tab

   
Red Hot Chili Peppers - Snow (Hey Oh)
album - Stadium Arcadium



     S S S S T  T  T T  S  S S S S S T  T  T T  S  S  
E||--------------------------------------------------|
B||------0---0h-2p-0-------0-----0---0h-2p-0-------0-|
G||----1---1---------1---------1---1---------1-------|
D||--1-----------------(2)---2-----------------(2)---|
A||--------------------------------------------------|
E||--------------------------------------------------|


                                                  
  S S S  S  T  T  T  T   S S S S S S T  T  T T  S  S  
-----------------------------------------------------|
---------------------------------2---2h-4p-2---------|
-------------------------------3-------------3-----3-|
----1-4-----4h-6p-4-(1)--1-4-4-----4-----------(4)---|
--2-----(1)------------------------------------------|
-----------------------------------------------------|


  S S S S T  T  T T  S  S S S S S T  T  T T  S  S  
--------------------------------------------------|
------0-L-0h-2p-0-------0-----0---0h-2p-0-------0-|
----1---1---------1---------1---1---------1-------|
--1-----------------(2)---2-----------------(2)---|
--------------------------------------------------|
--------------------------------------------------|


  S S S  S  T  T  T  T  S S S S S S T  T  T T  S  S  
----------------------------------------------------|
----------------------------------------------------|
----------------------------------------------------|
----1-4-----4h-6p-4-(1)-1-4-----4---4h-6p-4-1-(1)-4-|
--2-----(1)-------------------4---4-----------------|
----------------------------6-----------------------|

[ Tab from: http://www.guitartabs.cc/tabs/r/red_hot_chili_peppers/snow_hey_oh_tab_ver_6.html ]
  S S S S T  T  T T  S  S S S S S T  T  T T  S  S  
--------------------------------------------------|
------0-L-0h-2p-0-------0-----0---0h-2p-0-------0-|
----1---1---------1---------1---1---------1-------|
--1-----------------(2)---2-----------------(2)---|
--------------------------------------------------|
--------------------------------------------------|


  S S S  S  T  T  T  T  S S S S S S T  T  T T  S  S  
----------------------------------------------------|
--------------------------------2---2h-4p-2---------|
------------------------------3-------------3-----3-|
----1-4-----4h-6p-4-(1)-1-4-4-----4-----------(4)---|
--2-----(1)-----------------------------------------|
----------------------------------------------------|


  S S S S T  T  T T  S  S S S S S T  T  T T  S  S  
--------------------------------------------------|
------0-L-0h-2p-0-------0-----0---0h-2p-0-------0-|
----1---1---------1---------1---1---------1-------|
--1-----------------(2)---2-----------------(2)---|
--------------------------------------------------|
--------------------------------------------------|


  S S S  S  T  T  T  T  S S S S S S T  T  T T  S  S   
----------------------------------------------------||
----------------------------------------------------||
----------------------------------------------------||
----1-4-----4h-6p-4-(1)-1-4-----4---4h-6p-4-1-(1)-4-||
--2-----(1)-------------------4---4-----------------||
----------------------------6-----------------------||

h = hammer
p = pull
( ) = ghost note

Durations:
S - 16th note
T - 32nd note

if you have guitar pro, I also tabbed this with bass and drums