Red Hot Chili Peppers - Snow (hey Oh) Chords & Tabs

 

Snow (hey Oh) Chords & Tabs

Red Hot Chili Peppers Chords & Tabs

Version: 5 Type: Tab

Snow (hey Oh) Tab

   
Red Hot Chili Peppers
Snow (Hey Oh)
                                 A.Mazzei
h= hammer on to next note

(INTRO)
e|---------------------|---------------------|---------------------|---------------------|
B|---------------------|---------------------|---------------------|---------------------|
G|-----4---4h-6h-4---4-|-----4---4h-6h-4---4-|---------------------|-----6---6h-8h-6---6-|
D|---6---6---------6---|---6---6---------6---|-----4---4h-6h-4---4-|---8---8---------8---|
A|-6-------------------|-7-------------------|---6---6---------6---|-9-------------------|
E|---------------------|---------------------|-7-------------------|---------------------|


e|---------------------|---------------------|---------------------|---------------------|
B|---------------------|---------------------|---------------------|---------------------|
G|-----4---4h-6h-4---4-|-----4---4h-6h-4---4-|---------------------|---------------------|
D|---6---6---------6---|---6---6---------6---|-----4---4h-6h-4---4-|-----4---4h-6h-4---4-|
A|-6-------------------|-7-------------------|---6---6---------6---|---4---4---------6---|
E|---------------------|---------------------|-7-------------------|-6-------------------|


00:09
(DRUMS & BASS)
e|---------------------|---------------------|---------------------|---------------------|
B|---------------------|---------------------|---------------------|---------------------|
G|-----4---4h-6h-4---4-|-----4---4h-6h-4---4-|---------------------|-----6---6h-8h-6---6-|
D|---6---6---------6---|---6---6---------6---|-----4---4h-6h-4---4-|---8---8---------8---|
A|-6-------------------|-7-------------------|---6---6---------6---|-9-------------------|
E|---------------------|---------------------|-7-------------------|---------------------|

[ Tab from: http://www.guitartabs.cc/tabs/r/red_hot_chili_peppers/snow_hey_oh_tab_ver_5.html ]
e|---------------------|---------------------|---------------------|---------------------|
B|---------------------|---------------------|---------------------|---------------------|
G|-----4---4h-6h-4---4-|-----4---4h-6h-4---4-|---------------------|---------------------|
D|---6---6---------6---|---6---6---------6---|-----4---4h-6h-4---4-|-----4---4h-6h-4---4-|
A|-6-------------------|-7-------------------|---6---6---------6---|---4---4---------6---|
E|---------------------|---------------------|-7-------------------|-6-------------------|


00:18
(PART 1)

"come to decide"

John plays exactly the same thing in exactly the same order twice. 



00:37
(PART 2)

"hey oh"

Once again, John plays the exact same thing twice.



00:55
(PART 3)

"when will i know"

Once again, John plays the exact same thing twice.



01:14
(PART 2)

"hey oh"

Once again, John plays the exact same thing twice.



01:32
(PART 4)

"the more i see"

John just strums up and down:

   E    F   G#m  E

e|---|----|----|---|
B|-9-|-11-|-12-|-9-|
G|-9-|-11-|-13-|-9-|
D|-9-|-11-|-13-|-9-|
A|---|----|----|---|
E|---|----|----|---|



01:47
(PART 5)

Just strum up and down

e|-7-|-9--|-11-|
B|-7-|-11-|-12-|
G|-8-|-11-|-13-|    X4
D|-9-|-11-|-13-|
A|-9-|-9--|-11-|
E|-7-|----|----|



02:23
(INTRO 2)

John plays the intro again



02:32
(PART 6)

"went to the..."

Once again, John plays the exact same thing twice.



02:50
(PART 2)

"hey oh"

Once again, John plays the exact same thing twice.



03:09
(PART 4)

"the more i see"

John just strums up and down:

   E    F   G#m  E

e|---|----|----|---|
B|-9-|-11-|-12-|-9-|
G|-9-|-11-|-13-|-9-|
D|-9-|-11-|-13-|-9-|
A|---|----|----|---|
E|---|----|----|---|



03:23
(PART 5)

Just strum up and down

e|-7-|-9--|-11-|
B|-7-|-11-|-12-|
G|-8-|-11-|-13-|    X14
D|-9-|-11-|-13-|
A|-9-|-9--|-11-|
E|-7-|----|----|


thestrokes1@hotmail.com