Red Hot Chili Peppers - Slow Cheetah Chords & Tabs

 

Slow Cheetah Chords & Tabs

Red Hot Chili Peppers Chords & Tabs

Version: 3 Type: Tab

Slow Cheetah Tab

   
Artist: Red Hot Chili Peppers
Song:Slow Cheetah
Tab: Andrei Matracaru


Intro & first part of verse
e|-----------------------------------------------------|
B|-----------------------------------------------------|
G|--------6--------------------------10------------15--|
D|----8----------------11--------13--------------------|
A|-----------------11--------------------------16------|
E|--6---6---6----9----9---9----11--11--11----14--14----|

[ Tab from: http://www.guitartabs.cc/tabs/r/red_hot_chili_peppers/slow_cheetah_tab_ver_3.html ]
Second part of verse
e|---8--6-----------------------------------------------|
B|---------------9---10---------------------------------|
G|------------------------------------------------------|
D|----------------------------13--11--------------------|
A|------------------------------------------13--11------|
E|--6--6--6----9---9---9----11--11--11----14--14--------|


Chorus

D# - strum a couple of times

D#m C# (bar chords)
you'll have to listen to the song to figure out a rhythm,
but i think john alternates between these two chords.

ps:pt puiu' meu pe care il iubesc enorm de mult ;)