Red Hot Chili Peppers - Slow Cheetah Chords & Tabs

 

Slow Cheetah Chords & Tabs

Red Hot Chili Peppers Chords & Tabs

Version: 1 Type: Tab 3 ratings
1 star 2 stars 3 stars 4 stars 5 stars
comments

Slow Cheetah Tab

Artist:Red Hot Chili Peppers
Song:Slow Cheetah



   Intro/Verse

[ Tab from: http://www.guitartabs.cc/tabs/r/red_hot_chili_peppers/slow_cheetah_tab.html ]
E|-----------------------------------------------------|
B|--------2-------------------------6------------11----|
G|----3----------------6--------8----------------------|
D|-----------------6-------------------------11--------|
A|--1---1---1----4---4---4----6---6---6----9----9------|
E|-----------------------------------------------------|


      Chorus

E|--6--6--6--|
B|--7--7--7--|
G|--6--6--8--|
D|--8--6--8--|
A|--9--8--6--|
E|-----9-----|

Comments